Guitaretab - guitar tabs
Song name
# A B C D E F G H I J K L M N O P Q R S T U V W X Y Z

Charlie Clouser - Hello Zepp tab

STILL A WORK IN PROGRESS! I had to leave so I couldn't finish it...
This is my first tab, hope someone here likes it.

Hello Zepp by Charlie Clouser
Tabbed by Joseph Nobile
Tuned Dropped D

OPENING
Guitar I (Acoustic/Clean)
E--------------------------------------------------------------|
B---------------------------8---------------------------8------|
G-7-9-10---7-9-10--9-7-9-10-7--7-9-10--7-9-10--9-7-9-10-7------|
D-0-0-0----0-0-0---0-0-0-0--0--0-0-0---0-0-0---0-0-0-0--0------|
A-0-0-0----0-0-0---0-0-0-0-----0-0-0---0-0-0---0-0-0-0---------|
D--------------------------------------------------------------|

E--------------------------------------------------------------|
B---------------------------8---------------------------8------|
G-7-9-10---7-9-10--9-7-9-10-7--7-9-10--7-9-10--9-7-9-10-7------|
D-0-0-0----0-0-0---0-0-0-0--0--0-0-0---0-0-0---0-0-0-0--0------|
A-0-0-0----0-0-0---0-0-0-0-----0-0-0---0-0-0---0-0-0-0---------|
D--------------------------------------------------------------|

E--------------------------------------------------------------|
B---------------------------8---------------------------8------|
G-7-9-10---7-9-10--9-7-9-10-7--7-9-10--7-9-10--9-7-9-10-7------|
D-0-0-0----0-0-0---0-0-0-0--0--0-0-0---0-0-0---0-0-0-0--0------|
A-0-0-0----0-0-0---0-0-0-0-----0-0-0---0-0-0---0-0-0-0---------|
D--------------------------------------------------------------|

E--------------------------------------------------------------|
B---------------------------8----------------------------------|
G-7-9-10---7-9-10--9-7-9-10-7--7-9-10--7-9-10------------------|
D-0-0-0----0-0-0---0-0-0-0--0--0-0-0---0-0-0-------------------|
A-0-0-0----0-0-0---0-0-0-0-----0-0-0---0-0-0-------------------|
D--------------------------------------------------------------|

Guitar II (Heavy Distortion) Start after Guitar I plays the first measure.
E--------------------------------------------------------------|
B--------------------------------------------------------------|
G--------------------------------------------------------------|
D-0-0-0----0-0-0---0-0-0-0-7---0-0-0---0-0-0---0-0-0-0-7-------|
A-0-0-0----0-0-0---0-0-0-0-5---0-0-0---0-0-0---0-0-0-0-5-------|
D-0-0-0----0-0-0---0-0-0-0-0---0-0-0---0-0-0---0-0-0-0-0-------|
  . . .    . . .   . . . .     . . .   . . .   . . . .
E--------------------------------------------------------------|
B--------------------------------------------------------------|
G--------------------------------------------------------------|
D-0-0-0----0-0-0---0-0-0-0-7---0-0-0---0-0-0---0-0-0-0-7-------|
A-0-0-0----0-0-0---0-0-0-0-5---0-0-0---0-0-0---0-0-0-0-5-------|
D-0-0-0----0-0-0---0-0-0-0-0---0-0-0---0-0-0---0-0-0-0-0-------|
  . . .    . . .   . . . .     . . .   . . .   . . . .

E--------------------------------------------------------------|
B--------------------------------------------------------------|
G--------------------------------------------------------------|
D-0-0-0----0-0-0---0-0-0-0-7---0-0-0---0-0-0-------------------|
A-0-0-0----0-0-0---0-0-0-0-5---0-0-0---0-0-0-------------------|
D-0-0-0----0-0-0---0-0-0-0-0---0-0-0---0-0-0-------------------|
  . . .    . . .   . . . .     . . .   . . .
[ Tab from: http://www.guitaretab.com/c/charlie-clouser/109355.html ]
GUITAR RIFF (?)
Guitar III (Heavy Distortion)
E--------------------------------------------------------------|
B--------------------------------------------------------------|
G--------------------------------------------------------------|
D-------------------------10---------------------------10------|
A-5-7-8----5-7-8--7-5-7-8-8----5-7-8---5-7-8---7-5-7-8-8-------|
D--------------------------------------------------------------|

E--------------------------------------------------------------|
B--------------------------------------------------------------|
G--------------------------------------------------------------|
D-------------------------10-----------------------------------|
A-5-7-8----5-7-8--7-5-7-8-8----5-7-8---5-7-8---7-5-7-8---------|
D--------------------------------------------------------------|

Guitar II
E--------------------------------------------------------------|
B--------------------------------------------------------------|
G--------------------------------------------------------------|
D-3--3-3-3-3-3-3-2--2-2-2-2-2-2-0--0-0-0-0-0-0-7---7-77-7-7-7-|
A-5--5-5-5-5-5-5-5--5-5-5-5-5-5-5--0-0-0-0-0-0-5---5-5-5-5-5-5-|
D-3--3-3-3-3-3-3-2--2-2-2-2-2-2-0--0-0-0-0-0-0-0---0-0-0-0-0-0-|
     . . . . . .    . . . . . .    . . . . . .     . . . . . .

E--------------------------------------------------------------|
B--------------------------------------------------------------|
G--------------------------------------------------------------|
D-3--3-3-3-3-3-3-5--5-5-5-5-2-2-0--0-0-0-0-0-0-7--7-7-7-7-7-7--|
A-5--5-5-5-5-5-5-5--5-5-5-5-5-5-5--0-0-0-0-0-05--5-5-5-5-5-5--|
D-3--3-3-3-3-3-3-5--5-5-5-5-5-5-0--0-0-0-0-0-0-0--0-0-0-0-0-0--|
     . . . . . .    . . . . . .    . . . . . .    . . . . . .

E--------------------------------------------------------------|
B--------------------------------------------------------------|
G-----------------------------------------------7--------------|
D-10-------------9--------------7---------------7--------------|
A-8--------------7--------------5---------------5--------------|
D--------------------------------------------------------------|

E--------------------------------------------------------------|
B--------------------------------------------------------------|
G-----------------------------------------------7--------------|
D-10-------------12----------9--7---------------7--------------|
A-8--------------10----------7--5---------------5--------------|
D--------------------------------------------------------------|


E--------------------------------------------------------------|
B--------------------------------------------------------------|
G--------------------------------------------------------------|
D-0-2-3--0-2-3--2-0-2-3-5--0-2-3--0-2-3--2-0-2-3-5-------------|
A-0-2-3--0-2-3--2-0-2-3-5--0-2-3--0-2-3--2-0-2-3-5-------------|
D-0-2-3--0-2-3--2-0-2-3-5--0-2-3--0-2-3--2-0-2-3-5-------------|
  . . .  . . .  . . . .    . . .  . . .  . . . .

E--------------------------------------------------------------|
B--------------------------------------------------------------|
G--------------------------------------------------------------|
D--------------------------------------------------------------|
A--------------------------------------------------------------|
D--------------------------------------------------------------|
Related for Hello Zepp tab