Song name
# A B C D E F G H I J K L M N O P Q R S T U V W X Y Z

Charlie Daniels Band - The Legend Of Wooley Swamp tab

Charlie Daniels Band
The Legend of Wooley Swamp


Standard Tuning: EADGBe

 3x
|-----------------------|--------------------------|
|----------6b7----------|--------------------------|
|---5/7-5-------7-5-7~--|--7-5---------------------|
|-----------------------|-------6s7--5h7p5---------|
|-----------------------|-------------------5s3s5--|
|-----------------------|--------------------------|

 1x
|-----------------------|--------------------------|
|----------6b7----------|--------------------------|
|---5/7-5-------7-5-7~--|--7-5------------------7--|
|-----------------------|-------6s7--5h7p5------7--|
|-----------------------|-------------------5s3-5--|
|-----------------------|--------------------------|

The rest of the song is just G C D chords in different
orders and variations of the above riff.
Tap to rate this tab
# A B C D E F G H I J K L M N O P Q R S T U V W X Y Z