Song name
# A B C D E F G H I J K L M N O P Q R S T U V W X Y Z

Charlie Daniels Band - Long Haired Country Boy tab

Long haired country boy solo - Charlie Daniels Band


Im pretty sure this is right
h hammer on
p pulloff
/slide
b bend
                     listen for timing

---------5-5-------5-----------------------------------------------------------5--5---5h7--5--|
--/7-----------7------6/7-----6\5-------------------6/7--------6/7----------------------------|
--------------------------------------------7---7---7-----------------------------------------|
----------------------------------------------------------------------------------------------|
----------------------------------------------------------------------------------------------|
----------------------------------------------------------------------------------------------|

-----------------------------------------------------------------------5--5---5h7---5-----|
---6\5------3-----6/5----3-----------------------------5/7---------------------------6\5--|
-----------------------------------5------0h2---------------------------------------------|
------------------------------------------------------0-----------------------------------|
------------------------------------------------------------------------------------------|
------------------------------------------------------------------------------------------|

------------------------------------------8---------------------------------------------|
---3-----6\5----3--3--3----5b-----------6b----------------------------------6\5----3\1--|
--------------------------------------------------------7------------7h9---7------------|
---------------------------------------------------------------7h9----------------------|
----------------------------------------------------------------------------------------|
----------------------------------------------------------------------------------------|

----------------------------------------------------------------------------------------------|
----------------------------------------------------------------------------------------------|
---2p0---------------------------------------------0----------------7--7-----7--9--10b--9--7--|
----------3-5----------------3/5----5\3-----0------------7/9----------------------------------|
-------------------5--4--3--------------------------------------------------------------------|
----------------------------------------------------------------------------------------------|

-------------------------------------------------------10--------------------------------------|
--------------------------------------------------------------10\9-----------------------------|
------------------7\5---------7--------------------------------------9/10----------------------|
--7h9---7----------------7--------6\5----3----------------------------------7-----------9b-----|
--------------------------------------------------------------------------------------------7--|
-----------------------------------------------------------------------------------------------|

--------------------------------------------------------------------------------------------------|
-----------------------------------------------------------------------------------10--10\5--5/7--|
---7--7---9b----7--7--9-------5/7--5/7--5---------------------------------------------------------|
---------------------------------------------------------6\5-----3/4---0--------------------------|
--------------------------------------------------------------------------------------------------|
--------------------------------------------------------------------------------------------------|

-------------------------------------------|
-------------------------------------------|
-----7-------------------------------------|
-------------------------------------------|
-------------------------------------------|
-------------------------------------------|
Tap to rate this tab
# A B C D E F G H I J K L M N O P Q R S T U V W X Y Z