Charlie Daniels Band - In America tab

------------------------------------------------------------------------------   
                 In America - The Charlie Daniels Band
2.                          Full Moon-1981
3.Words & Music by Daniels, Crain, Digregoro, Edwards, Hayward and Marshall       
-------------------------------------------------------------------------------
Tabbed by:Duane Baldwin
Email:duaneandjulie@gmail.com

Tuning: Standard

Guitar I (Clean )

Intro
e|-----------------------------------------------|
B|--3-----3--4--3--------------------3-----------|
G|-----5-----------5--3-----5--3--5-----5--3--5--|
D|-----------------------5-----------------------|
A|-----------------------------------------------|
E|-----------------------------------------------|

e|--------------------------------------------|
B|--3--------------------------------------3--|
G|-----3--5-----3--0--0--0--3--5--3-----------|
D|-----------5-----------------------3--5-----|
A|--------------------------------------------|
E|--------------------------------------------|

e|--------------------------------------------|
B|-----3--4--3--------------------3-----------|
G|--5-----------5--3-----5--3--5-----5--3--5--|
D|--------------------5-----------------------|
A|--------------------------------------------|
E|--------------------------------------------|

e|-----------------------------------------|
B|--3-----------------------------------3--|
G|-----3--5-----3-----------------3--------|
D|-----------5-----0--3--5--3--5-----5-----|
A|-----------------------------------------|
E|-----------------------------------------|
					
e|--------------------------------------------|
B|-----3--4--3--------------------3-----------|
G|--5-----------5--3-----5--3--5-----5--3--5--|
D|--------------------5-----------------------|
A|--------------------------------------------|
E|--------------------------------------------|

e|--------------------------------------------|
B|--3--------------------------------------3--|
G|-----3--5-----3--0--0--0--3--5--3-----------|
D|-----------5-----------------------3--5-----|
A|--------------------------------------------|
E|--------------------------------------------|

e|--------------------------------------------|
B|-----3--4--3--------------------3-----------|
G|--5-----------5--3-----5--3--5-----5--5-----|
D|--------------------5--------------------5--|
A|--------------------------------------------|
E|--------------------------------------------|

e|-----------------------------------|---------------------|-----------|
B|-----------------------------------|---------------------|-----------|
G|--3-----------------------3--2--0--|---------------------|-----------|
D|-----5--5--0--3--------------------|--2/3---5--3--0------|-----------|
A|-----------------5-----5-----------|-----------------5---|-----------|
E|--------------------3--------------|-----------------3---|-----------|

1st Verse
e|--3--3--3--3--3---6--6--6--6--6--|--8---8---8---8---8----3--3--3--3--3--|
B|--3--3--3--3--3---6--6--6--6--6--|--8---9---9---9---9----3--3--3--3--3--|
G|--3--3--3--3--3---7--7--7--7--7--|--9---9---9---9---9----3--3--3--3--3--|
D|--5--5--5--5--5---8--8--8--8--8--|--10--10--10--10--10---5--5--5--5--5--|
A|--5--5--5--5--5---8--8--8--8--8--|--10--10--10--10--10---5--5--5--5--5--|
E|---------------------------------|--------------------------------------|

e|--1--1--1--1--1---5--5--5--5--5--|--3--3--3--3--3--3--3--3--3--3--|
B|--1--1--1--1--1---5--5--5--5--5--|--3--3--3--3--3--3--3--3--3--3--|
G|--2--2--2--2--2---5--5--5--5--5--|--3--3--3--3--3--3--3--3--3--3--|
D|--3--3--3--3--3---7--7--7--7--7--|--5--5--5--5--5--5--5--5--5--5--|
A|--3--3--3--3--3---7--7--7--7--7--|--5--5--5--5--5--5--5--5--5--5--|
E|---------------------------------|--------------------------------|

e|--3--3--3--3--3---6--6--6--6--6--|--8---8---8---8---8----3--3--3--3--3--|
B|--3--3--3--3--3---6--6--6--6--6--|--8---9---9---9---9----3--3--3--3--3--|
G|--3--3--3--3--3---7--7--7--7--7--|--9---9---9---9---9----3--3--3--3--3--|
D|--5--5--5--5--5---8--8--8--8--8--|--10--10--10--10--10---5--5--5--5--5--|
A|--5--5--5--5--5---8--8--8--8--8--|--10--10--10--10--10---5--5--5--5--5--|
E|---------------------------------|--------------------------------------|

e|--1--1--1--1--1---5--5--5--5--5--|--3--3--3--3--3--3--3--3--3--3--|
B|--1--1--1--1--1---5--5--5--5--5--|--3--3--3--3--3--3--3--3--3--3--|
G|--2--2--2--2--2---5--5--5--5--5--|--3--3--3--3--3--3--3--3--3--3--|
D|--3--3--3--3--3---7--7--7--7--7--|--5--5--5--5--5--5--5--5--5--5--|
A|--3--3--3--3--3---7--7--7--7--7--|--5--5--5--5--5--5--5--5--5--5--|
E|---------------------------------|--------------------------------|

1st Pre-Chorus
e|--8---8---8---8---8---8---8---8---8---8---|--3--3--3--3--3--3--3--3--3--3--|
B|--8---8---8---8---8---8---8---8---8---8---|--3--3--3--3--3--3--3--3--3--3--|
G|--9---9---9---9---9---9---9---9---9---9---|--3--3--3--3--3--3--3--3--3--3--|
D|--10--10--10--10--10--10--10--10--10--10--|--5--5--5--5--5--5--5--5--5--5--|
A|--10--10--10--10--10--10--10--10--10--10--|--5--5--5--5--5--5--5--5--5--5--|
E|------------------------------------------|--------------------------------|

e|--8---8---8---8---8---8---8---8---8---8---|--10--10--10--10--10---8----6---|
B|--8---8---8---8---8---8---8---8---8---8---|--10--10--10--11--11---8----6---|
G|--9---9---9---9---9---9---9---9---9---9---|--11--11--11--11--11---9----7---|
D|--10--10--10--10--10--10--10--10--10--10--|--12--12--12--12--12---10---8---|
A|--10--10--10--10--10--10--10--10--10--10--|--12--12--12--12--12---10---8---|
E|------------------------------------------|--------------------------------|

e|--3--3--3--3--3---6--6--6--6--6--|--8---8---8---8---8----3--3--3--3--3--|
B|--3--3--3--3--3---6--6--6--6--6--|--8---9---9---9---9----3--3--3--3--3--|
G|--3--3--3--3--3---7--7--7--7--7--|--9---9---9---9---9----3--3--3--3--3--|
D|--5--5--5--5--5---8--8--8--8--8--|--10--10--10--10--10---5--5--5--5--5--|
A|--5--5--5--5--5---8--8--8--8--8--|--10--10--10--10--10---5--5--5--5--5--|
E|---------------------------------|--------------------------------------|

e|--1--1--1--1--1---5--5--5--5--5--|-----------------3-----|
B|--1--1--1--1--1---5--5--5--5--5--|---------3-------3-----|
G|--2--2--2--2--2---5--5--5--5--5--|---------3-------4-----|
D|--3--3--3--3--3---7--7--7--7--7--|--3--5-------3---5-----|
A|--3--3--3--3--3---7--7--7--7--7--|--3--5-------3---5-----|
E|---------------------------------|-----------------3-----|

1st Chorus (Slight overdrive)
e|--1--1-----------|------------------------------|--1--1-----------|
B|--1--1-----------|------------------------------|--1--1-----------|
G|--2--2----5--5---|---------------0h3------------|--2--2----5--5---|
D|--3--3----5--5---|--------0h3h5-------5--0h3h5--|--3--3----5--5---|
A|--3--3----3--3---|--3--5------------------------|--3--3----3--3---|
E|-----------------|------------------------------|-----------------|

e|-----------------------------------|--1--1-----------|
B|-----------------------------------|--1--1-----------|
G|--6--5--0h3---------------------3--|--2--2----5--5---|
D|-------------5--0h3-----0h3--5-----|--3--3----5--5---|
A|---------------------5-------------|--3--3----3--3---|
E|-----------------------------------|-----------------|

e|------------------------------|--1--1-----------|
B|------------------------------|--1--1-----------|
G|---------------0h3------------|--2--2----5--5---|
D|--------0h3h5-------5--0h3h5--|--3--3----5--5---|
A|--3--5------------------------|--3--3----3--3---|
E|------------------------------|-----------------|

e|-----------------------------------|
B|-----------------------------------|
G|--------3--2-----------------------|
D|--------------5--2--3--5--3-----5--|
A|-----5-----------------------5--5--|
E|--3-----------------------------3--|

2nd Verse (Clean)
e|--3--3--3--3--3---6--6--6--6--6--|--8---8---8---8---8----3--3--3--3--3--|
B|--3--3--3--3--3---6--6--6--6--6--|--8---9---9---9---9----3--3--3--3--3--|
G|--3--3--3--3--3---7--7--7--7--7--|--9---9---9---9---9----3--3--3--3--3--|
D|--5--5--5--5--5---8--8--8--8--8--|--10--10--10--10--10---5--5--5--5--5--|
A|--5--5--5--5--5---8--8--8--8--8--|--10--10--10--10--10---5--5--5--5--5--|
E|---------------------------------|--------------------------------------|

e|--1--1--1--1--1---5--5--5--5--5--|--3--3--3--3--3--3--3--3--3--3--|
B|--1--1--1--1--1---5--5--5--5--5--|--3--3--3--3--3--3--3--3--3--3--|
G|--2--2--2--2--2---5--5--5--5--5--|--3--3--3--3--3--3--3--3--3--3--|
D|--3--3--3--3--3---7--7--7--7--7--|--5--5--5--5--5--5--5--5--5--5--|
A|--3--3--3--3--3---7--7--7--7--7--|--5--5--5--5--5--5--5--5--5--5--|
E|---------------------------------|--------------------------------|

e|--3--3--3--3--3---6--6--6--6--6--|--8---8---8---8---8----3--3--3--3--3--|
B|--3--3--3--3--3---6--6--6--6--6--|--8---9---9---9---9----3--3--3--3--3--|
G|--3--3--3--3--3---7--7--7--7--7--|--9---9---9---9---9----3--3--3--3--3--|
D|--5--5--5--5--5---8--8--8--8--8--|--10--10--10--10--10---5--5--5--5--5--|
A|--5--5--5--5--5---8--8--8--8--8--|--10--10--10--10--10---5--5--5--5--5--|
E|---------------------------------|--------------------------------------|

e|--1--1--1--1--1---5--5--5--5--5--|--3--3--3--3--3--3--3--3--3--3--|
B|--1--1--1--1--1---5--5--5--5--5--|--3--3--3--3--3--3--3--3--3--3--|
G|--2--2--2--2--2---5--5--5--5--5--|--3--3--3--3--3--3--3--3--3--3--|
D|--3--3--3--3--3---7--7--7--7--7--|--5--5--5--5--5--5--5--5--5--5--|
A|--3--3--3--3--3---7--7--7--7--7--|--5--5--5--5--5--5--5--5--5--5--|
E|---------------------------------|--------------------------------|

2nd Pre-Chorus
e|--8---8---8---8---8---8---8---8---8---8---|--3--3--3--3--3--3--3--3--3--3--|
B|--8---8---8---8---8---8---8---8---8---8---|--3--3--3--3--3--3--3--3--3--3--|
G|--9---9---9---9---9---9---9---9---9---9---|--3--3--3--3--3--3--3--3--3--3--|
D|--10--10--10--10--10--10--10--10--10--10--|--5--5--5--5--5--5--5--5--5--5--|
A|--10--10--10--10--10--10--10--10--10--10--|--5--5--5--5--5--5--5--5--5--5--|
E|------------------------------------------|--------------------------------|

e|--8---8---8---8---8---8---8---8---8---8---|--10--10--10--10--10---8----6---|
B|--8---8---8---8---8---8---8---8---8---8---|--10--10--10--11--11---8----6---|
G|--9---9---9---9---9---9---9---9---9---9---|--11--11--11--11--11---9----7---|
D|--10--10--10--10--10--10--10--10--10--10--|--12--12--12--12--12---10---8---|
A|--10--10--10--10--10--10--10--10--10--10--|--12--12--12--12--12---10---8---|
E|------------------------------------------|--------------------------------|

e|--3--3--3--3--3---6--6--6--6--6--|--8---8---8---8---8----3--3--3--3--3--|
B|--3--3--3--3--3---6--6--6--6--6--|--8---9---9---9---9----3--3--3--3--3--|
G|--3--3--3--3--3---7--7--7--7--7--|--9---9---9---9---9----3--3--3--3--3--|
D|--5--5--5--5--5---8--8--8--8--8--|--10--10--10--10--10---5--5--5--5--5--|
A|--5--5--5--5--5---8--8--8--8--8--|--10--10--10--10--10---5--5--5--5--5--|
E|---------------------------------|--------------------------------------|

e|--1--1--1--1--1---5--5--5--5--5--|-----------------3-----|
B|--1--1--1--1--1---5--5--5--5--5--|---------3-------3-----|
G|--2--2--2--2--2---5--5--5--5--5--|---------3-------4-----|
D|--3--3--3--3--3---7--7--7--7--7--|--3--5-------3---5-----|
A|--3--3--3--3--3---7--7--7--7--7--|--3--5-------3---5-----|
E|---------------------------------|-----------------3-----|

2nd Chorus (Slight overdrive)
e|--1--1-----------|------------------------------|--1--1-----------|
B|--1--1-----------|------------------------------|--1--1-----------|
G|--2--2----5--5---|---------------0h3------------|--2--2----5--5---|
D|--3--3----5--5---|--------0h3h5-------5--0h3h5--|--3--3----5--5---|
A|--3--3----3--3---|--3--5------------------------|--3--3----3--3---|
E|-----------------|------------------------------|-----------------|

e|-----------------------------------|--1--1-----------|
B|-----------------------------------|--1--1-----------|
G|--6--5--0h3---------------------3--|--2--2----5--5---|
D|-------------5--0h3-----0h3--5-----|--3--3----5--5---|
A|---------------------5-------------|--3--3----3--3---|
E|-----------------------------------|-----------------|

e|------------------------------|--1--1-----------|
B|------------------------------|--1--1-----------|
G|---------------0h3------------|--2--2----5--5---|
D|--------0h3h5-------5--0h3h5--|--3--3----5--5---|
A|--3--5------------------------|--3--3----3--3---|
E|------------------------------|-----------------|

e|-----------------------------------|
B|-----------------------------------|
G|--------3--2-----------------------|
D|--------------5--2--3--5--3-----5--|
A|-----5-----------------------5--5--|
E|--3-----------------------------3--|

1st Guitar Solo (Clean)
e|---------3------------------------|----------------------------------------|
B|------3-----6--5--3-----3---------|----------------------------------------|
G|--5b-----------------5-----5p3----|-5p3-----3--5b--5b--5b-3-----------0-2-3|
D|--------------------------------5-|-------5------------------5--0--3-------|
A|----------------------------------|----------------------------------------|
E|----------------------------------|----------------------------------------|

e|-----------------------------3-----3--|-6p3--6p3--6--8b--8p6----0--6p5----5|
B|----------------3------3--6-----6-----|-----------------------8---------6--|
G|--5--5p3p0--5b-----5b-----------------|------------------------------------|
D|--------------------------------------|------------------------------------|
A|--------------------------------------|------------------------------------|
E|--------------------------------------|------------------------------------|

e|--5\4-----3---------------------------------------|
B|-------5-----6--3---------------------------------|
G|-------------------6--5--3-----5-----3b-----------|
D|----------------------------5-----5------5--4--5--|
A|--------------------------------------------------|
E|--------------------------------------------------|

Keyboard Solo
e|--6--6--6--6--6--|--8---8---8---8---8----3--3--3--3--3--|
B|--6--6--6--6--6--|--8---9---9---9---9----3--3--3--3--3--|
G|--7--7--7--7--7--|--9---9---9---9---9----3--3--3--3--3--|
D|--8--8--8--8--8--|--10--10--10--10--10---5--5--5--5--5--|
A|--8--8--8--8--8--|--10--10--10--10--10---5--5--5--5--5--|
E|-----------------|--------------------------------------|

e|--1--1--1--1--1---5--5--5--5--5--|--3--3--3--3--3--3--3--3--3--3--|
B|--1--1--1--1--1---5--5--5--5--5--|--3--3--3--3--3--3--3--3--3--3--|
G|--2--2--2--2--2---5--5--5--5--5--|--3--3--3--3--3--3--3--3--3--3--|
D|--3--3--3--3--3---7--7--7--7--7--|--5--5--5--5--5--5--5--5--5--5--|
A|--3--3--3--3--3---7--7--7--7--7--|--5--5--5--5--5--5--5--5--5--5--|
E|---------------------------------|--------------------------------|

2nd Guitar Solo
e|--8---8---8---8---8---8---8---8---8---8---|--3--3--3--3--3--3--3--3--3--3--|
B|--8---8---8---8---8---8---8---8---8---8---|--3--3--3--3--3--3--3--3--3--3--|
G|--9---9---9---9---9---9---9---9---9---9---|--3--3--3--3--3--3--3--3--3--3--|
D|--10--10--10--10--10--10--10--10--10--10--|--5--5--5--5--5--5--5--5--5--5--|
A|--10--10--10--10--10--10--10--10--10--10--|--5--5--5--5--5--5--5--5--5--5--|
E|------------------------------------------|--------------------------------|

e|---------------3-----|
B|---5-----3-----3-----|
G|---5-----3-----3-----|
D|---5-----3-----5-----|
A|---3-----1-----5-----|
E|---------------3-----|

Breakdown
e|-------------------------------|--------------------------|
B|-------------------------------|--------------------------|
G|-------------------------3-----|--------------------------|
D|----------------3--5--3-----5--|--5--3--------------------|
A|--------1--3/5-----------------|--------5--3--1-----------|
E|--1--3-------------------------|-----------------3--1--3--|

e|-------------------------------|-----------------------|
B|-------------------------------|-----------------------|
G|-------------------------3-----|--6--5--3--------------|
D|----------------3--5--3-----5--|-----------5-----3--5--|
A|--------1--3/5-----------------|--------------5--------|
E|--1--3-------------------------|-----------------------|

3rd Chorus (Slight overdrive)
e|--1--1-----------|------------------------------|--1--1-----------|
B|--1--1-----------|------------------------------|--1--1-----------|
G|--2--2----5--5---|---------------0h3------------|--2--2----5--5---|
D|--3--3----5--5---|--------0h3h5-------5--0h3h5--|--3--3----5--5---|
A|--3--3----3--3---|--3--5------------------------|--3--3----3--3---|
E|-----------------|------------------------------|-----------------|

e|-----------------------------------|--1--1-----------|
B|-----------------------------------|--1--1-----------|
G|--6--5--0h3---------------------3--|--2--2----5--5---|
D|-------------5--0h3-----0h3--5-----|--3--3----5--5---|
A|---------------------5-------------|--3--3----3--3---|
E|-----------------------------------|-----------------|

e|------------------------------|--1--1-----------|
B|------------------------------|--1--1-----------|
G|---------------0h3------------|--2--2----5--5---|
D|--------0h3h5-------5--0h3h5--|--3--3----5--5---|
A|--3--5------------------------|--3--3----3--3---|
E|------------------------------|-----------------|

e|-----------------------------------|
B|-----------------------------------|
G|--------3--2-----------------------|
D|--------------5--2--3--5--3-----5--|
A|-----5-----------------------5--5--|
E|--3-----------------------------3--|

Outro
e|-----------------------------------------------|
B|--3-----3--4--3--------------------3-----------|
G|-----5-----------5--3-----5--3--5-----5--3--5--|
D|-----------------------5-----------------------|
A|-----------------------------------------------|
E|-----------------------------------------------|

e|--------------------------------------------|
B|--3--------------------------------------3--|
G|-----3--5-----3--0--0--0--3--5--3-----------|
D|-----------5-----------------------3--5-----|
A|--------------------------------------------|
E|--------------------------------------------|

e|--------------------------------------------|
B|-----3--4--3--------------------3-----------|
G|--5-----------5--3-----5--3--5-----5--3--5--|
D|--------------------5-----------------------|
A|--------------------------------------------|
E|--------------------------------------------|

e|-----------------------------------------|
B|--3-----------------------------------3--|
G|-----3--5-----3-----------------3--------|
D|-----------5-----0--3--5--3--5-----5-----|
A|-----------------------------------------|
E|-----------------------------------------|
					
e|--------------------------------------------|
B|-----3--4--3--------------------3-----------|
G|--5-----------5--3-----5--3--5-----5--3--5--|
D|--------------------5-----------------------|
A|--------------------------------------------|
E|--------------------------------------------|

e|--------------------------------------------|
B|--3--------------------------------------3--|
G|-----3--5-----3--0--0--0--3--5--3-----------|
D|-----------5-----------------------3--5-----|
A|--------------------------------------------|
E|--------------------------------------------|

e|--------------------------------------------|
B|-----3--4--3--------------------3-----------|
G|--5-----------5--3-----5--3--5-----5--5-----|
D|--------------------5--------------------5--|
A|--------------------------------------------|
E|--------------------------------------------|

e|---------------------------------|
B|---------------------------------|
G|-----2/3-----4--5------7--9------|
D|--5-------7--------10------------|
A|-----------------------------10--|
E|-----------------------------10--|


Guitar II ( Slight Overdrive)

Intro
e|--6-----6--8--6-----------------------------|
B|-----8-----------8--6--5-----5--6--5-----5--|
G|--------------------------7-----------7-----|
D|--------------------------------------------|		
A|--------------------------------------------|
E|--------------------------------------------|

e|--------------------------------6--|
B|--6-----5--------3--5--3-----------|
G|-----7-----3--0-----------0--3-----|
D|-----------------------------------|
A|-----------------------------------|
E|-----------------------------------|

e|-----6--8--6--5-----------------------------|
B|--8--------------8--6--5--5--5--6--5-----5--|
G|--------------------------------------7-----|
D|--------------------------------------------|
A|--------------------------------------------|
E|--------------------------------------------|

e|--------------------------------6--|
B|--6-----5--3--------------3--------|
G|-----7--------0--3--2--3-----3-----|
D|-----------------------------------|
A|-----------------------------------|
E|-----------------------------------|

e|-----6--8--6--5-----------------------------|
B|--8--------------8--6--5--5--5--6--5-----5--|
G|--------------------------------------7-----|
D|--------------------------------------------|
A|--------------------------------------------|
E|--------------------------------------------|

e|--------------------------------6--|
B|--6-----5--------3--5--3-----------|
G|-----7-----0--3-----------0--3-----|
D|-----------------------------------|
A|-----------------------------------|
E|-----------------------------------|

e|-----6--8--6--5-----------------------------|
B|--8--------------8--6--5--5--5--6--5-----5--|
G|--------------------------------------7-----|
D|--------------------------------------------|
A|--------------------------------------------|
E|--------------------------------------------|

e|-----------------------------------|---------------------|-----------|
B|-----------------------------------|---------------------|-----------|
G|--3--2--------------------3--2-----|---------------------|-----------|
D|--------5--3--2-----------------5--|--2--3--5--3-----5---|-----------|
A|-----------------5-----5-----------|--------------5------|-----------|
E|--------------------3--------------|---------------------|-----------|

1st Verse
e|--3--3--3--3--------------|--------------3--3--3--3--|
B|--3--3--3--3--3--3--3--3--|--5--5--5--5--3--3--3--3--|
G|--3--3--3--3--3--3--3--3--|--5--5--5--5--3--3--3--3--|
D|--5--5--5--5--3--3--3--3--|--5--5--5--5--5--5--5--5--|
A|--5--5--5--5--1--1--1--1--|--3--3--3--3--5--5--5--5--|
E|--3--3--3--3--------------|--------------3--3--3--3--|

e|--1--1--1--1--5--5--5--5--|---------------------------|
B|--1--1--1--1--5--5--5--5--|--11--11--11--11p8------8--|
G|--2--2--2--2--5--5--5--5--|--------------------10-----|
D|--3--3--3--3--7--7--7--7--|---------------------------|
A|--3--3--3--3--7--7--7--7--|---------------------------|
E|--1--1--1--1--5--5--5--5--|---------------------------|

e|--3--3--3--3--------------|--------------3--3--3--3--|
B|--3--3--3--3--3--3--3--3--|--5--5--5--5--3--3--3--3--|
G|--3--3--3--3--3--3--3--3--|--5--5--5--5--3--3--3--3--|
D|--5--5--5--5--3--3--3--3--|--5--5--5--5--5--5--5--5--|
A|--5--5--5--5--1--1--1--1--|--3--3--3--3--5--5--5--5--|
E|--3--3--3--3--------------|--------------3--3--3--3--|

e|--1--1--1--1--5--5--5--5--|--------------|
B|--1--1--1--1--5--5--5--5--|-----1--3/8---|
G|--2--2--2--2--5--5--5--5--|--3-----------|
D|--3--3--3--3--7--7--7--7--|--------------|
A|--3--3--3--3--7--7--7--7--|--------------|
E|--1--1--1--1--5--5--5--5--|--------------|

1st Pre-Chorus
	  Let Ring-----|   Let Ring------|    Let Ring------|   Let Ring------|
e|----------8----------------8--------|----------3----------------3--------|
B|-------8-----8----------8-----8-----|-------------3----------------3-----|
G|--8h9-----------9--8h9-----------9--|-------3--------3-------3--------3--|
D|------------------------------------|--3h5--------------3h5--------------|
A|------------------------------------|------------------------------------|
E|------------------------------------|------------------------------------|

	  Let Ring-----|   Let Ring------|      Let Ring----------|  
e|----------8----------------8--------|-------------10-----------8-----6---|
B|-------8-----8----------8-----8-----|---------10------10-------8-----6---|
G|--8h9-----------9--8h9-----------9--|--10h11--------------11---9-----7---|
D|------------------------------------|--------------------------10----8---|
A|------------------------------------|--------------------------10----8---|
E|------------------------------------|--------------------------8-----6---|

e|--3--3--3--3--------------|--------------3--3--3--3--|
B|--3--3--3--3--3--3--3--3--|--5--5--5--5--3--3--3--3--|
G|--3--3--3--3--3--3--3--3--|--5--5--5--5--3--3--3--3--|
D|--5--5--5--5--3--3--3--3--|--5--5--5--5--5--5--5--5--|
A|--5--5--5--5--1--1--1--1--|--3--3--3--3--5--5--5--5--|
E|--3--3--3--3--------------|--------------3--3--3--3--|

e|--1--1--1--1--5--5--5--5--|-----------------|
B|--1--1--1--1--5--5--5--5--|--------3--------|
G|--2--2--2--2--5--5--5--5--|--2--3-----2--3--|
D|--3--3--3--3--7--7--7--7--|-----------------|
A|--3--3--3--3--7--7--7--7--|-----------------|
E|--1--1--1--1--5--5--5--5--|-----------------|

1st Chorus
e|-----------------|------------------------------|-----------------|
B|-----------------|------------------------------|-----------------|
G|----------5--5---|---------------0h3------------|----------5--5---|
D|--3--3----5--5---|--------0h3h5-------5--0h3h5--|--3--3----5--5---|
A|--3--3----3--3---|--3--5------------------------|--3--3----3--3---|
E|--1--1-----------|------------------------------|--1--1-----------|

e|-----------------------------------|-----------------|
B|-----------------------------------|-----------------|
G|--6--5--0h3---------------------3--|----------5--5---|
D|-------------5--0h3-----0h3--5-----|--3--3----5--5---|
A|---------------------5-------------|--3--3----3--3---|
E|-----------------------------------|--1--1-----------|

e|------------------------------|-----------------|
B|------------------------------|-----------------|
G|---------------0h3------------|----------5--5---|
D|--------0h3h5-------5--0h3h5--|--3--3----5--5---|
A|--3--5------------------------|--3--3----3--3---|
E|------------------------------|--1--1-----------|

e|--------6--5--3--------3--------3--|
B|--3--6-----------5--6-----6--3-----|
G|-----------------------------------|
D|-----------------------------------|
A|-----------------------------------|
E|-----------------------------------|

2nd Verse
e|--3--3--3--3--------------|--------------3--3--3--3--|
B|--3--3--3--3--3--3--3--3--|--5--5--5--5--3--3--3--3--|
G|--3--3--3--3--3--3--3--3--|--5--5--5--5--3--3--3--3--|
D|--5--5--5--5--3--3--3--3--|--5--5--5--5--5--5--5--5--|
A|--5--5--5--5--1--1--1--1--|--3--3--3--3--5--5--5--5--|
E|--3--3--3--3--------------|--------------3--3--3--3--|

e|--1--1--1--1--5--5--5--5--|------------------------------|
B|--1--1--1--1--5--5--5--5--|------------11--13br--11------|
G|--2--2--2--2--5--5--5--5--|--12~~~------------------12---|
D|--3--3--3--3--7--7--7--7--|------------------------------|
A|--3--3--3--3--7--7--7--7--|------------------------------|
E|--1--1--1--1--5--5--5--5--|------------------------------|

e|--3--3--3--3--------------|--------------3--3--3--3--|
B|--3--3--3--3--3--3--3--3--|--5--5--5--5--3--3--3--3--|
G|--3--3--3--3--3--3--3--3--|--5--5--5--5--3--3--3--3--|
D|--5--5--5--5--3--3--3--3--|--5--5--5--5--5--5--5--5--|
A|--5--5--5--5--1--1--1--1--|--3--3--3--3--5--5--5--5--|
E|--3--3--3--3--------------|--------------3--3--3--3--|

e|--1--1--1--1--5--5--5--5--|--6----------------------------|
B|--1--1--1--1--5--5--5--5--|--6b--6pbr--3------------------|
G|--2--2--2--2--5--5--5--5--|---------------6--5--3-----3b--|
D|--3--3--3--3--7--7--7--7--|------------------------5------|
A|--3--3--3--3--7--7--7--7--|-------------------------------|
E|--1--1--1--1--5--5--5--5--|-------------------------------|

2nd Pre-Chorus
	  Let Ring-----|   Let Ring------|    Let Ring------|   Let Ring------|
e|----------8----------------8--------|----------3----------------3--------|
B|-------8-----8----------8-----8-----|-------------3----------------3-----|
G|--8h9-----------9--8h9-----------9--|-------3--------3-------3--------3--|
D|------------------------------------|--3h5--------------3h5--------------|
A|------------------------------------|------------------------------------|
E|------------------------------------|------------------------------------|

	  Let Ring-----|   Let Ring------|      Let Ring----------|  
e|----------8----------------8--------|-------------10-----------8-----6---|
B|-------8-----8----------8-----8-----|---------10------10-------8-----6---|
G|--8h9-----------9--8h9-----------9--|--10h11--------------11---9-----7---|
D|------------------------------------|--------------------------10----8---|
A|------------------------------------|--------------------------10----8---|
E|------------------------------------|--------------------------8-----6---|

e|--3--3--3--3--------------|--------------3--3--3--3--|
B|--3--3--3--3--3--3--3--3--|--5--5--5--5--3--3--3--3--|
G|--3--3--3--3--3--3--3--3--|--5--5--5--5--3--3--3--3--|
D|--5--5--5--5--3--3--3--3--|--5--5--5--5--5--5--5--5--|
A|--5--5--5--5--1--1--1--1--|--3--3--3--3--5--5--5--5--|
E|--3--3--3--3--------------|--------------3--3--3--3--|

e|--1--1--1--1--5--5--5--5--|-----------------|
B|--1--1--1--1--5--5--5--5--|--------3--------|
G|--2--2--2--2--5--5--5--5--|--2--3-----2--3--|
D|--3--3--3--3--7--7--7--7--|-----------------|
A|--3--3--3--3--7--7--7--7--|-----------------|
E|--1--1--1--1--5--5--5--5--|-----------------|

2nd Chorus
e|-----------------|------------------------------|-----------------|
B|-----------------|------------------------------|-----------------|
G|----------5--5---|---------------0h3------------|----------5--5---|
D|--3--3----5--5---|--------0h3h5-------5--0h3h5--|--3--3----5--5---|
A|--3--3----3--3---|--3--5------------------------|--3--3----3--3---|
E|--1--1-----------|------------------------------|--1--1-----------|

e|-----------------------------------|-----------------|
B|-----------------------------------|-----------------|
G|--6--5--0h3---------------------3--|----------5--5---|
D|-------------5--0h3-----0h3--5-----|--3--3----5--5---|
A|---------------------5-------------|--3--3----3--3---|
E|-----------------------------------|--1--1-----------|

e|------------------------------|-----------------|
B|------------------------------|-----------------|
G|---------------0h3------------|----------5--5---|
D|--------0h3h5-------5--0h3h5--|--3--3----5--5---|
A|--3--5------------------------|--3--3----3--3---|
E|------------------------------|--1--1-----------|

e|--------6--5--3--------3--------3--|
B|--3--6-----------5--6-----6--3-----|
G|-----------------------------------|
D|-----------------------------------|
A|-----------------------------------|
E|-----------------------------------|

1st Guitar Solo
e|--3--3--3--3--------------|--------------3--3--3--3--|
B|--3--3--3--3--3--3--3--3--|--5--5--5--5--3--3--3--3--|
G|--4--4--4--4--3--3--3--3--|--5--5--5--5--4--4--4--4--|
D|--5--5--5--5--3--3--3--3--|--5--5--5--5--5--5--5--5--|
A|--5--5--5--5--1--1--1--1--|--3--3--3--3--5--5--5--5--|
E|--3--3--3--3--------------|--------------3--3--3--3--|

e|--1--1--1--1--------------|--3--3--3--3--3--3--3--3--|
B|--1--1--1--1--------------|--3--3--3--3--3--3--3--3--|
G|--2--2--2--2--2--2--2--2--|--4--4--4--4--4--4--4--4--|
D|--3--3--3--3--2--2--2--2--|--5--5--5--5--5--5--5--5--|
A|--3--3--3--3--0--0--0--0--|--5--5--5--5--5--5--5--5--|
E|--1--1--1--1--------------|--3--3--3--3--3--3--3--3--|

Keyboard Solo
e|--3--3--3--3--------------|--------------3--3--3--3--|
B|--3--3--3--3--3--3--3--3--|--5--5--5--5--3--3--3--3--|
G|--4--4--4--4--3--3--3--3--|--5--5--5--5--4--4--4--4--|
D|--5--5--5--5--3--3--3--3--|--5--5--5--5--5--5--5--5--|
A|--5--5--5--5--1--1--1--1--|--3--3--3--3--5--5--5--5--|
E|--3--3--3--3--------------|--------------3--3--3--3--|

e|--1--1--1--1--------------|--3--3--3--3--3--3--3--3--3--3---|
B|--1--1--1--1--5--5--5--5--|--3--3--3--3--3--3--3--3--3--3---|
G|--2--2--2--2--5--5--5--5--|--3--3--3--3--3--3--3--3--3--3---|
D|--3--3--3--3--5--5--5--5--|--5--5--5--5--5--5--5--5--5--5---|
A|--3--3--3--3--3--3--3--3--|--5--5--5--5--5--5--5--5--5--5---|
E|--1--1--1--1--------------|--3--3--3--3--3--3--3--3--3--3---|

2nd Guitar Solo
e|--11b--11pb--11pb--11pb--11pb--11pb--10--8-------------|
B|--------------------------------------------11--8------|
G|---------------------------------------------------10--|
D|-------------------------------------------------------|
A|-------------------------------------------------------|
E|-------------------------------------------------------|

e|-----------------------------------------------|
B|--11p8------11--8------11------8--8\-----------|
G|--------10---------10------10---------6p5p3p0--|
D|-----------------------------------------------|
A|-----------------------------------------------|
E|-----------------------------------------------|

e|-------------------------------|-------------------------|
B|-------------------------------|-------------------------|
G|--5--5--5p3-----3--3-----------|--3--5--5br--3-----------|
D|-------------5--------5--3-----|----------------5--3--5--|
A|----------------------------5--|-------------------------|
E|-------------------------------|-------------------------|

Breakdown
e|-------------------------------|--------------------------|
B|-------------------------------|--------------------------|
G|-------------------------3-----|--------------------------|
D|----------------3--5--3-----5--|--5--3--------------------|
A|--------1--3/5-----------------|--------5--3--1-----------|
E|--1--3-------------------------|-----------------3--1--3--|

e|-------------------------6b-----|--9--8--6--------------|
B|--------------3--6/8--6------8--|-----------8-----6--8--|
G|--0--2--3--5--------------------|--------------7--------|
D|--------------------------------|-----------------------|
A|--------------------------------|-----------------------|
E|--------------------------------|-----------------------|

3rd Chorus
e|-----------------|------------------------------|-----------------|
B|-----------------|------------------------------|-----------------|
G|----------5--5---|---------------0h3------------|----------5--5---|
D|--3--3----5--5---|--------0h3h5-------5--0h3h5--|--3--3----5--5---|
A|--3--3----3--3---|--3--5------------------------|--3--3----3--3---|
E|--1--1-----------|------------------------------|--1--1-----------|

e|-----------------------------------|-----------------|
B|--6--5--5--3-----------------------|-----------------|
G|--------------3--3--2--------2--3--|----------5--5---|
D|-----------------------3--3--------|--3--3----5--5---|
A|-----------------------------------|--3--3----3--3---|
E|-----------------------------------|--1--1-----------|

e|------------------------------|-----------------|
B|------------------------------|-----------------|
G|---------------0h3------------|----------5--5---|
D|--------0h3h5-------5--0h3h5--|--3--3----5--5---|
A|--3--5------------------------|--3--3----3--3---|
E|------------------------------|--1--1-----------|

e|-----------------------------------|
B|-----------------------------------|
G|--------3--2-----------------------|
D|-----3--------5--2--3--5--3-----5--|
A|--5--------------------------5-----|
E|-----------------------------------|

Outro
e|--6-----6--8--6-----------------------------|
B|-----8-----------8--6--5-----5--6--5-----5--|
G|--------------------------7-----------7-----|
D|--------------------------------------------|		
A|--------------------------------------------|
E|--------------------------------------------|

e|--------------------------------6--|
B|--6-----5--------3--5--3-----------|
G|-----7-----3--0-----------0--3-----|
D|-----------------------------------|
A|-----------------------------------|
E|-----------------------------------|

e|-----6--8--6--5-----------------------------|
B|--8--------------8--6--5--5--5--6--5-----5--|
G|--------------------------------------7-----|
D|--------------------------------------------|
A|--------------------------------------------|
E|--------------------------------------------|

e|--------------------------------6--|
B|--6-----5--3--------------3--------|
G|-----7--------0--3--2--3-----3-----|
D|-----------------------------------|
A|-----------------------------------|
E|-----------------------------------|

e|-----6--8--6--5-----------------------------|
B|--8--------------8--6--5--5--5--6--5-----5--|
G|--------------------------------------7-----|
D|--------------------------------------------|
A|--------------------------------------------|
E|--------------------------------------------|

e|-----------------------------------6--|
B|--6-----5--3--------3--5--3-----------|
G|-----7--------0--3-----------0--3-----|
D|--------------------------------------|
A|--------------------------------------|
E|--------------------------------------|

e|-----6--8--6--5--------------------------|
B|--8--------------8--6--5--5--5--6--5--5--|
G|-----------------------------------------|
D|-----------------------------------------|
A|-----------------------------------------|
E|-----------------------------------------|

e|---------------------------------|
B|--------3--------5--------8--11--|
G|--3--5-----5--7-----8--9-----10--|
D|---------------------------------|
A|---------------------------------|
E|---------------------------------|



************************************

| /   slide up
| \   slide down
| h   hammer-on
| p   pull-off
| ~   vibrato
| +   harmonic
| x   Mute note
| b   Bend
| pb  Pre-bend
| br  Bend release
| pbr Pre-bend release
| brb Bend release bend

************************************
Intro

N.C.


1st Verse

                                                                                       
Gm                Bb           C                Gm
Well the eagles been flyin slow and the flags been flyin low 

       F                        Am                 Gm
and a lot of people saying that Americas fixin to fall 

    Gm               Bb           C                Gm     
but speakin just for me and some people from Tennessee 

        F              Am	       Gm
well we got a thing or two to tell you all 

1st Pre-Chorus

       C                        Gm
this lady may have stumbled but she ainít never fell 

                                                                                        
C                                     D                  C
and if the Russians donít believe that they can all go straight to hell 

 Bb         Gm                Bb             C                 Gm
we're gonna put her feet back on the path of righteousness and then 

F                  Am         F G     Bb   F   G     
God bless America again 

1st Chorus

                                                                                     
F                              C            N.C.
and you never did think that it would ever happen again 


in America did you? 

	   F			   C                  N.C.
and you never did think that we'd ever get together again

 
well we damn sure fooled you 

       F                           C                N.C.
we're walkin real proud and we're talkin real loud again

 
                                                                     
in America 

         F                 C
and you never did think it ever would happen again


2nd Verse

	 Gm                Bb            C            Gm
From the sound up in long island out to San Francisco bay 


         F                Am               Gm
and everything that is between them is our own 

       Gm               Bb            C                  Gm
and we may have done a little bit of fightin mongst ourselves

        F              Am             Gm
but you outside people best leave us alone 

2nd Pre-Chorus 

       C                                   Gm
cause we'll all stick together and you can take that to the bank 

          C                                D              C   Bb  
thats the cowboys and the hippies and the rebels and the yanks 

         Gm               Bb       C                  Gm
you just go and lay your hand on a Pittsburgh Steeler fan 

       F               Am           F   G   Bb F   G
and I think your gonna find he understands 

2nd Chorus
 
             
        F                             C            N.C.	
and you never did think that it would ever happen again 


in America did you? 

	   F			   C                 N.C.
and you never did think that we'd ever get together again

 
well we damn sure fooled you 

           
      F                           C                 N.C
we're walkin real proud and we're talkin real loud again

 
                                 
                    F                       C            N.C
in America and you never did think it would ever happen again 

Solos

Gm     Bb   C   Gm   F   Am   Gm

Gm     Bb   C   Gm   F   Am   Gm

C     Gm     C   Bb     G

Breakdown

N.C.

3rd Chorus              
         F                             C           N.C.
and you never did think that it would ever happen again 


in America did you? 

	   F			  C                 N.C.
and you never did think that we'd ever get together again

 
well we damn sure fooled you 
                                                                            

       F                          C                 N.C
we're walkin real proud and we're talkin real loud again

 
                   F                        C             N.C.       
in America and you never did think it would ever happen again 

Outro

N.C.
Tap to rate this tab
 
# A B C D E F G H I J K L M N O P Q R S T U V W X Y Z