Song name
# A B C D E F G H I J K L M N O P Q R S T U V W X Y Z

Charlie Daniels Band - Legend Of Wooley Swamp tab

                         CHARLIE DANIELS BAND
                      THE LEGEND OF WOOLEY SWAMP


STANDARD TUNING
EADGBe

play it like this the first time
----------------------|------------------------------------|
----3------3-6-3----3-|-3----------------------------------|
--------5---------5---|-----5------------------------------|
----------------------|--------5^6^5-3---3-----------------|
----------------------|----------------5-------------------|
----------------------|------------------------------------|

play it like this the second time
----------------------------------------------------------|
-3--------------------------------------------------------|
---5-----------7------------------------------------------|
-----5^6^5-3---7------------------------------------------|
-------------3-5------------------------------------------|
----------------------------------------------------------|

there is the intro

peace
Tap to rate this tab
 
# A B C D E F G H I J K L M N O P Q R S T U V W X Y Z