Song name
# A B C D E F G H I J K L M N O P Q R S T U V W X Y Z

Charlie Daniels Band - Souths Gonna Do It Again tab

This is my first tab so its a little rusty, i was sitting around just messing when this
came on and i decided to learn it but when i go on to get the tab or chords there was
available so i began to work on it and the timimg , well you'll have to listen to the 
to get it perfect.....enjoy what i have so far!

E-----------------------------------------------------------]
B-----------------------------------------------------------]
G-----15-15----15--15-15----15--15-15------15-15-15---------] x2
D-----15-15----15--15-15----15--15-15------15-15-15---------]
A----------17-----------17-----------17---------------------]
E-----------------------------------------------------------]

E-----------------------------------------------------------]
B-----------------------------------------------------------]
G-----15--15-15----15--15-15----17-17-17--17----17--17-17---]
D-----15--15-15----15--15-15----17-17-17--17----17--17-17---]
A------------------------------------------19-----------19--]
E-----------------------------------------------------------]

E-----------------------------------------------------------]
B-----------------------------------------------------------]
G----17-17----17--17-17----17--17-17----17-17-17------------] x2
D----17-17----17--17-17----17--17-17----17-17-17------------]
A--------19-----------19-----------19-----------------------]
E-----------------------------------------------------------]

E-----------------------------------------------------------]
B-----------------------------------------0~~~~-------------]
G-------------------------------------7-7-7~~~~-------------]
D---------777-----777-----777---------7-7-7~~~~-------------]
A----7h9-------7-------7------------------0~~~~-------------]
E-----------------------------------------------------------]


~~~~~ = let it ring
h = hammer on
x = times the amount by the number ex.( x2 means play twice)


Well theres my first tab its sorta easy but may take some time due to nedding to listen
the song to get the timing right its a really neat riff to mess with ...... enjoy

If there is any questions email me at danman5242@aim.com
Tap to rate this tab
# A B C D E F G H I J K L M N O P Q R S T U V W X Y Z