Song name
# A B C D E F G H I J K L M N O P Q R S T U V W X Y Z

Charlie Daniels Band - Uneasy Rider tab

#----------------------------------PLEASE NOTE---------------------------------#
#This file is the author's own work and represents their interpretation of the #
#song. You may only use this file for private study, scholarship, or research. #
#------------------------------------------------------------------------------##


 4/4
  Gtr I
  E E E   S S S S S S S S S S S S S S S S   S S S S S S S S S S S S S S S S
|-------|---------------------------------|----------------------------------|
|-------|---------------------------------|-----------------1-0-1-3-1-0------|
|-------|-----------------0---0-3-2-0-----|-------0-2-0---2-------------2-0--|
|-------|-------0-2-0---2---2---------3-2-|-3-2-3-------3--------------------|
|---0-2-|-3-2-3-------3-------------------|----------------------------------|
|-3-----|---------------------------------|----------------------------------|


  S  S S S S S S S S S S S S S S S   E E S S S  S S S S S E +E
|----------0-------6-5-3-0-------3-|-------------------------------*|
|------3-0---3-0-3---------3-4-5---|-1-----------------------------*|
|-2-/3-----------------------------|---2-0-2-----------------------*|
|----------------------------------|---------2-\1-0----------------*|
|----------------------------------|----------------3-0---3-(3)----*|
|----------------------------------|--------------------3----------*|
Tap to rate this tab
 
# A B C D E F G H I J K L M N O P Q R S T U V W X Y Z