Song name
# A B C D E F G H I J K L M N O P Q R S T U V W X Y Z

Charlie Daniels - Souths Gonna Do It Again tab

this is my first tab but i made sure it was 100% correct



E|----------------------------------------------|
B|-10--------10------10----10--------10---------|
G|----9-11-9----9-11----------9-11-9----11-9----|
D|----------------------------------------------|
A|-------------------------------------------12-|
E|----------------------------------------------|

E|-------------------8--------------------------|
B|-10--------10---10----------------------------|
G|----9-11-9----9-------------------------------|
D|----------------------------------------------|
A|----------------------------------------------|
E|----------------------------------------------|
Tap to rate this tab
# A B C D E F G H I J K L M N O P Q R S T U V W X Y Z