Guitaretab - guitar tabs
Song name
# A B C D E F G H I J K L M N O P Q R S T U V W X Y Z

Charlie Hall - Marvelous Light tab

                                 MARVELOUS LIGHT
                           As recorded by Charlie Hall
                   (From the 2006 Album FLYING INTO DAYBREAK)

Transcribed by Chris Cavendish

 4/4
|---------------------------|-------------------|
|---------12-(12)-10-(10)---|-------------------|
|-------9-----------------9-|-(9)------------9--|
|-11h12---------------------|-------12-11h12----|
|---------------------------|-------------------|
|---------------------------|-------------------|

[ Tab from: http://www.guitaretab.com/c/charlie-hall/182358.html ]
|----------------------------|--------|
|----------12-(12)-10-(10)---|--------|
|--------------------------9-|-(9)----|
|-11h12-11-------------------|--------|
|----------------------------|--------|
|----------------------------|--------|


 4/4
  Gtr I
|----------9-(9)--------|-9------------------|
|--------------------10-|---12--12-(12)--10--|
|------------------9----|--------------------|
|-11h12-11--------------|--------------------|
|-----------------------|--------------------|
|-----------------------|--------------------|


|----------------------------|--------|
|----------12-(12)-10-(10)---|--------|
|--------------------------9-|-(9)----|
|-11h12-11-------------------|--------|
|----------------------------|--------|
|----------------------------|--------|

Related for Marvelous Light tab