Song name
# A B C D E F G H I J K L M N O P Q R S T U V W X Y Z

Charlie Hall - Hookers And Robbers chords

-----------------------------------------------------------------
Hookers And Robbers - Charlie Hall
-----------------------------------------------------------------
Tabbed by: Fearless
Email:dafearlessjesusfreak@googlemail.com

Tuning:(Eletric)... Drop C (CGCFAD)

Intro:         
D|----7---------|
A|-4-5--4-5-----|
F|----------4---|
C|--------------|
G|--------------|
C|--------------|
             x2   
 Verse 1:
D|-----7----------------------7----------------7------------|
A|-4-5---4-5--------------4-5---4-5--------4-5---4-5--------|
F|-----------4----------------------4----------------4------|
C|----------------------------------------------------------|
G|----------------------------------------------------------|
C|----------------------------------------------------------|
  Me i am not such...     I journeyed...   My breath fast...

Chorus:
D|---4-2----4-2----4-2----4-2-------------|
A|-5------5------5------5-----7h9p7h9p7-5-|
F|----------------------------------------|
C|----------------------------------------|
G|----------------------------------------|
C|----------------------------------------|
                                         x2

Verse 2:
D|-----7----------------------------------------------------7---------------|
A|-4-5---4-5---------5-0-5-0-5-0-7-0-5-0-7-0-5-0-9-0----4-5---4-5---0-5-0-7-|
F|-----------4----------------------------------------------------4---------|
C|--------------------------------------------------------------------------|
G|--------------------------------------------------------------------------|
C|--------------------------------------------------------------------------|
  I Missed...        I Knew i was wrong...              He threw me...
D|-------------------------------------------|
A|-0-5-0-9-0-5-0-5-0-5-0-7-0-5-0-7-0-5-0-9-0-|
F|-------------------------------------------|
C|-------------------------------------------|
G|-------------------------------------------|
C|-------------------------------------------|
Do this untill the end of verse

Chorus:
D|---4-2----4-2----4-2----4-2-------------|
A|-5------5------5------5-----7h9p7h9p7-5-|
F|----------------------------------------|
C|----------------------------------------|
G|----------------------------------------|
C|----------------------------------------|
                                         x2

Bridge:
D|-----11---------------7------------7---------|
A|-8-9----8-9-------4-5---4-5----4-5---4-5-----|
F|------------8---------------4------------4---|
C|---------------------------------------------|
G|---------------------------------------------|
C|---------------------------------------------|
  oh while he...     Wipe off...   Raise up...   


Chorus:
D|---4-2----4-2----4-2----4-2-------------|
A|-5------5------5------5-----7h9p7h9p7-5-|
F|----------------------------------------|
C|----------------------------------------|
G|----------------------------------------|
C|----------------------------------------|
                                         x2
  
Any Corrections please tell me and i will really appreciate it thanks hope you like it.
Tap to rate this tab
 
# A B C D E F G H I J K L M N O P Q R S T U V W X Y Z