Charlie Hall - All We Need tab

Charlie Hall
All we need
From "Passion 2006"

I wouldn't submit this since it's already on here three times, but none of
the submitted files are complete. Enjoy!


Intro
G - D/F# - Em7 - C

Chorus
     G                      D/F#                     Em7 
And we have all we need in You,  And all we need is You,
                C 
All we need is You.    
     G                      D/F#                     Em7 
Yeah, we have all we need in You, and all we need is You,
                C
All we need is You.     
             

Verse 
G                              D/F#
Rich or poor, God, I want You more            
                                     Em7
Than anything that glitters in this world; 
                           C
Be my all, all consuming fire.             
G                                   D/F#
and You can have all my hands can hold,
                                  Em7
My heart, mind and strength and soul;
                           C
Be my all, all consuming fire.

Chorus 

Verse

Chorus

Solo "He's all we need" underneath the solo in Em Pentatonic
Am////-//// Em////-//// Am////-//// Em////-////
Am////-//// Em////-//// C////-//// C////-////

Chorus x2

Outro x2
         G               D        Em7      C          
All we need, all we need, all we need, is You. 




Chorus tab for lead guitar
x2
e|---------------------------------------------------------------------|
B|--8-8-8-8-10-10-10-10-12-12-12-12-15-15-15-15------------------------|
G|---------------------------------------------------------------------|
D|--5-5-5-5-7--7--7--7--9--9--9--9--12-12-12-12------------------------|
A|---------------------------------------------------------------------|
E|---------------------------------------------------------------------|

x1
e|---------------------------------------------------------------------|
B|--8-8-8-8-10-10-10-10-12-12-12-12-17-17-17-17-13-13-13-13~~~~--------|
G|---------------------------------------------------------------------|
D|--5-5-5-5-7--7--7--7--9--9--9--9--14-14-14-14-10-10-10-10------------|
A|---------------------------------------------------------------------|
E|---------------------------------------------------------------------|

For the bridge/solo, just play in the Em pentatonic. He's playing slide
on the album, but the Em pentatonic sounds pretty good.

Enjoy!

Chad Miller
freetoliveforyou.blogspot.com 
Tap to rate this tab
 
# A B C D E F G H I J K L M N O P Q R S T U V W X Y Z