Song name
# A B C D E F G H I J K L M N O P Q R S T U V W X Y Z

Charlie Mcdonnell - Blink tab

E ----------------------------------------------------|
B ----------3------------------------1----------------|
G ----2---------2---2---------2----------2---2--------|
D --0---0---------0---------3---3----------3----------|
A ----------------------------------------------------|
E ----------------------------------------------------|


E ------------------------------------0---|
B ---------1--------------------------0---|
G -------0-------0----0--------------0----|
D -----2-------3----2-------------0-------|
A ---3--------------------------2---------|
E-----------------------------3-----------|

This is my first tab, but I'm pretty sure this is accurate.
Enjoy!
Tap to rate this tab
# A B C D E F G H I J K L M N O P Q R S T U V W X Y Z