Song name
# A B C D E F G H I J K L M N O P Q R S T U V W X Y Z

Charlie Parker - Scrapple From The Apple tab

----------------------------------------------------------------------------
			     SONG NAME - Band Name
----------------------------------------------------------------------------
Tabbed by: yo momma

Tuning: Standard

the rythm isnt given, just play along to a recording and you'll figure it out pretty easily.

e|---------------------------------------13--------------------------------|
B|--------11p10-------------13--11-10/11-----15p11----------------10-11-10-|
G|-11h12--------12p10------------------------------12-14-10-12-------------|
D|--------------------12/14------------------------------------11----------|
A|-------------------------------------------------------------------------|
E|-------------------------------------------------------------------------|

e|------------------13-10-12-10--------------------------------------------|
B|--13-10------------------------10h11h12/13-------10-11-10-9-10-----------|
G|--------12p10h12---------------------------------------------------------|
D|-------------------------------------------------------------------------|
A|-------------------------------------------------------------------------|
E|-------------------------------------------------------------------------|
*first ending*     *second ending*
e|---------------|---------------------------------------------------------|
B|-13-10-11-13---|---------------------------------------------------------|
G|---------------|---10----9h10--------------------------------------------|
D|---------------|------10-------------------------------------------------|
A|---------------|---------------------------------------------------------|
E|---------------|---------------------------------------------------------|

| /  slide up
| \  slide down
| h  hammer-on
| p  pull-off
| ~  vibrato
| +  harmonic
| x  Mute note
Tap to rate this tab
 
# A B C D E F G H I J K L M N O P Q R S T U V W X Y Z