Song name
# A B C D E F G H I J K L M N O P Q R S T U V W X Y Z

Charlie Parker - Nows The Time tab

-------------------------------------------------------------------------------
			     Now's the Time - Charlie Parker
-------------------------------------------------------------------------------
Tabbed by: rockstardudeee

Tuning: Standard

e|---------------------------------------------------------------------------|
B|----------6---6---8-------6--repeat-2x-------------------------------------|
G|------5---------------5----------------------------------------------------|
D|---------------------------------------------------------------------------|
A|---------------------------------------------------------------------------|
E|---------------------------------------------------------------------------|

e|---------------------------------------------------------------------------|
B|----------6---6---8-------6---6---8-------6---6---8-------6----------------|
G|------5---------------5---------------5---------------5--------------------|
D|---------------------------------------------------------------------------|
A|---------------------------------------------------------------------------|
E|---------------------------------------------------------------------------|


e|---------------------------------------------------------------------------|
B|----------6---6---8-------6----------------6---6---8-------6---------------|
G|------5---------------5--------3-----------------------5-------4-----------|
D|---------------------------------------------------------------------------|
A|---------------------------------------------------------------------------|
E|---------------------------------------------------------------------------|

e|---------------------------------------------------------------------------|
B|----------6---6---8-------6---6---8-------6---6---8-------6----------------|
G|------5---------------5---------------5---------------5--------------------|
D|---------------------------------------------------------------------------|
A|---------------------------------------------------------------------------|
E|---------------------------------------------------------------------------|


e|---------------------------------------------------------------------------|
B|------9---6---------------------8---6--8--6--------------------------------|
G|--------------7---5---7--------------------------8---5--3--5---------------|
D|---------------------------------------------------------------------------|
A|---------------------------------------------------------------------------|
E|---------------------------------------------------------------------------|

===============================================================================
Tap to rate this tab
 
# A B C D E F G H I J K L M N O P Q R S T U V W X Y Z