Charlie Parr - Cheap Wine tab

-------------------------------------------------------------------------------
			     CHEAP WINE  Charlie Parr
-------------------------------------------------------------------------------
Tabbed by: Lee D.
Email:leedemo@msn.com		

Tuning: Standard
	  Am	                F	                    C	               G
e|---------0--0-----0--0-------0--0------0--0-----0--0-----0--0-----3--3------|
B|---------1--1-----1--1-------1--1------1--1-----1--1-----1--1-----3--3------|
G|---------2--2-----2--2-------2--2---2--2--2--0--0--0-----0--0-----0--0------|
D|---------2--2--2--2--2--0h3--3--3------3--3-----2--2--2--2--2--0--0--0------|
A|------0--0--0-----0--0-------0--0------0--0-----3--3-----3--3-----2--2----2-|
E|---------x--x-----x--x-------x--x------x--x-----x--x-----x--x-----3--3--3--

The whole song is this repeated. This is the most common version I've heard, 
sometimes he does alot more picking. 

************************************

| /   slide up
| \   slide down
| h   hammer-on
| p   pull-off
| ~   vibrato
| +   harmonic
| x   Mute note
| b   Bend
| pb  Pre-bend
| br  Bend release
| pbr Pre-bend release
| brb Bend release bend

************************************
Tap to rate this tab
 
# A B C D E F G H I J K L M N O P Q R S T U V W X Y Z