Song name
# A B C D E F G H I J K L M N O P Q R S T U V W X Y Z

Charlie Parra Del Riego - Diffrent View tab

/ : slide up
* : pinch harmonic
~ : vibrato


e------------------------------------------------------------------------------|
B------------------------------------------------------------------------------|
G-------16-12-------------16-12-----------12-9------------12-9(10)-9*----------|
D----14-------14-------14-------14~----10------10------10----------------------|
A-12-------------15-12---------------8------------12-8-------------------------|
E------------------------------------------------------------------------------|

-------------------------------------------------------------------------------|
-------------------------------------------------------------------------------|
-------------------------------------------------------------------------------|
---/5--7------------5--7-------------------------------------------------------|
----------7---5--7-------7--5--7-----------------------------------------------|
-------------------------------------------------------------------------------|


i done that by ear so it may not be acurate
original video:
http://www.youtube.com/watch?v=hFxLso1M2J0
Tap to rate this tab
# A B C D E F G H I J K L M N O P Q R S T U V W X Y Z