Song name
# A B C D E F G H I J K L M N O P Q R S T U V W X Y Z

Charlie Parra - Lady Gaga Metal Medley tab

Hi everyone! It's my first tab and I don't know whole song but i try to repeat 
chords and solos from this cool song!! I live in Ukraine, so sorry for my English))
Lets Go!
(Only Solo Guitar)

Intro
1------------------------------------------------------------------------I
2------------------------------1↑-3↑--11-1↑-5↑-1-3↑----------------------I
3------------------------------------------------------------------------I
4-77---33-----77-3-3-532--II---------------------------------------------I
5---77---33-------3-------II---------------------------------------------I
6-------------------------II---------------------------------------------I
Repeat 2 times! __________II

First Solo
1-8-7----8-7-------------------------------------------------------------I
2-----8------8--55-66-55---/5 88--5-/1-33--------------------------------I
3------------------------------------------------------------------------I
4------------------------------------------------------------------------I
5------------------------------------------------------------------------I
6------------------------------------------------------------------------I
Fast advanced solo

SORRY - To hihg for me))

Solo 2

1--------------------------------------------------I---------------------I
2-10-10-10-10-10-10-88-----------------------------I---------------------I
3----------------------7-9-/10--9-12-9-7-5////-----I---------------------I
4--------------------------------------------------I---------------------I
5--------------------------------------------------I---------------------I
6--------------------------------------------------I---------------------I
Repeat two times___________________________________I

Next Solo
1------------------------------------------------------------------------I
2------------------------------------------------------------------------I
3/10-9-10-9-7-5-4-5-7/9-10/9-7-5////-----//10--//12----------------------I
4------------------------------------------------------------------------I
5------------------------------------------------------------------------I
6------------------------------------------------------------------------I

Ending
1-55555-7-4-4444-5-9-5----------------I-/12-10-9--------------------------I
2---------------------/7-9-7-9-14-10--I----------12-9///-99-10-10-9-------I
3-------------------------------------I-----------------------------------I
4-------------------------------------I-----------------------------------I
5-------------------------------------I-----------------------------------I
6-------------------------------------I-----------------------------------I
Repeat 2 times________________________I

1-12-10-9---------------I
2---------10↑-7/////----I
3-----------------------I
4-----------------------I  
5-----------------------I
6-----------------------I

1-55555-7-4-4444-5-9-5----------------------I
2---------------------/7-9-7-9-14-10//////--I
3-------------------------------------------I
4-------------------------------------------I
5-------------------------------------------I
6-------------------------------------------I
Tap to rate this tab
 
# A B C D E F G H I J K L M N O P Q R S T U V W X Y Z