Song name
# A B C D E F G H I J K L M N O P Q R S T U V W X Y Z

Charlie Parra - A Diffrent View tab

e------------------------------------------------------------------------------|
B------------------------------------------------------------------------------|
G------------------------------------------------------------------------------|
D-------16-12-------------16-12-----------12-9-------------12-9b(10)-9*--------|
A----14-------14-------14-------12~----10------10-------10---------------------|
E-12-------------15--12--------------8------------12--8------------------------|

-------------------------------------------------------------------------------|
-------------------------------------------------------------------------------|
-------------------------------------------------------------------------------|
-------------------------------------------------------------------------------|
-/5--7-----------5--7----------------------------------------------------------|
--------7--5--7-------7--5--7--------------------------------------------------|


b : bend
/ : slide up
* : pinch harmonic

this tab is done by ear & its my first , so there might be some mistakes
Tap to rate this tab
 
# A B C D E F G H I J K L M N O P Q R S T U V W X Y Z