Song name
# A B C D E F G H I J K L M N O P Q R S T U V W X Y Z

Charlie Parra - Eclectic Barbarella tab

Awesome song by a great up and coming guitarist. Here's the intro so we can pretend to 
be as good as Charlie.

(/) Slide Up  (\) Slide Down  (h) Hammer On  (p) Pull Off  (b) Bend (r) Release (v) 
Vibrato (*) Natural Harmonic


E|----------------------------------------------------------------------------------------------|
B|----------------------------------------------------------------5h6p5-------------------------|
G|------------9---------9/10/9/5----------------------------7------------7--------7-----7/9/7--5|
D|-------7---------7-----------------10-----10/12/10--7--5-----5---------------5-----5----------|
A|--5-----------------------------------------------------------------------3-------------------|
E|--------------------------------6------6------------------------------------------------------|



E|----------------------------------------------------------------------------5*-----------|
B|------------------------------------------------------5h6p5--------------------5*-----5--|
G|-----9-----9/10/9--5----------------------------7------------7--------7-----------5*-----|
D|-------------------------10-----10/12/10--7--5-----5---------------5-----5---------------|
A|--5-----5-------------------------------------------------------3------------------------|
E|----------------------6------6-----------------------------------------------------------|
Tap to rate this tab
# A B C D E F G H I J K L M N O P Q R S T U V W X Y Z