Song name
# A B C D E F G H I J K L M N O P Q R S T U V W X Y Z

Charlie Schmidts - Keyboard Cat tab

e|------12----15---12-------12--15----12-|
b|-13------------------13----------------|
g|---------------------------------------|
d|---------------------------------------|
a|---------------------------------------|
e|---------------------------------------|

e|------10----13---10-------10--13----10-|
b|-11------------------11----------------|
g|---------------------------------------|
d|---------------------------------------|
a|---------------------------------------|
e|---------------------------------------|

e|------9----12---9-------9--12----9----|
b|-10------------------10---------------|
g|--------------------------------------|
d|--------------------------------------|
a|--------------------------------------|
e|--------------------------------------|

e|--------------------------------------|
b|-10-10-10-x-10-10-x 10-10-------------|
g|--------------------------------------|
d|--------------------------------------|
a|--------------------------------------|
e|--------------------------------------|

e|------12----15---12-------12--15----12-|
b|-13------------------13----------------|
g|---------------------------------------|
d|---------------------------------------|
a|---------------------------------------|
e|---------------------------------------|

e|------10----13---10-------10--13----10-|
b|-11------------------11----------------|
g|---------------------------------------|
d|---------------------------------------|
a|---------------------------------------|
e|---------------------------------------|

e|------9----12---9-------9--12----9----|
b|-10------------------10---------------|
g|--------------------------------------|
d|--------------------------------------|
a|--------------------------------------|
e|--------------------------------------|

Then I like to end it with a...
e|-------9--10--------------------------|
b|--10----------------------------------|
g|--------------------------------------|
d|--------------------------------------|
a|--------------------------------------|
e|--------------------------------------|

Enjoy!
:)
Tap to rate this tab
 
# A B C D E F G H I J K L M N O P Q R S T U V W X Y Z