Song name
# A B C D E F G H I J K L M N O P Q R S T U V W X Y Z

Charlie Simpson - Please Let Me Go tab

Intro x2
e------------------------|           
B-------3----------------|            
G----------0----0--------|           
D----2-------2-----------| x4     
A-3----------------------|           
E------------------------|    

e---------------------|
B----------3----------|
G------------0--0-----|
D-------2-----2-------| x4 [First time don't hammer on]
A-0h2-----------------|
E---------------------|

Verse


e------------------------|           
B-------3----------------|            
G----------0----0--------|           
D----2-------2-----------| x4     
A-3----------------------|           
E------------------------|    


e---------------------|
B----------3----------|
G------------0--0-----|
D-------2-----2-------| x4 [First time don't hammer on]
A-0h2-----------------|
E---------------------|


e------------------------|           
B-------3----------------|            
G----------0----0--------|           
D----3-------3-----------| x4     
A-3----------------------|           
E------------------------| 

e----------------------------|
B------3-------------3---1-0-|
G--------0---0---------0---0-|
D----2-----2-------2---------| 
A-2-------------0h2----------|
E----------------------------|

e-------------|
B----3--------|
G-----0-0-----|
D------2------| x2
A--2----------|
E-3-----------|


e------------------------|           
B-------3----------------|            
G----------0----0--------|           
D----3-------3-----------| x4     
A-3----------------------|           
E------------------------| 

e----------------------------|
B------3-------------3---1-0-|
G--------0---0---------0---0-|
D----2-----2-------2---------| 
A-2-------------0h2----------|
E----------------------------|

e-------------|
B----3--------|
G-----0-0-----|
D------2------| x2
A--2----------|
E-3-----------|

Pre Chorus


e------------------------------|
B---- 3----------3--------3----|
G------0--0-------0-0-----0-0-|
D---2---2------2---2----2--2--|  
A-0-----------2--------3------|
E-----------------------------|

e----------------|
B---- 3-----------|
G------0--0------|
D---2---2--------|  
A-0--------------|
E----------------|


e----------------|
B---- 3-----------|
G------0--0------|
D---2---2--------|  x4
A-2--------------|
E----------------|

Chorus

C Gadd11 Csus4 x2
Am7 C Csus4
Am7 Csus4

Pre verse - Intro

Verse 2

e------------------------|           
B-------3----------------|            
G----------0----0--------|           
D----2-------2-----------| x4     
A-3----------------------|           
E------------------------|    


e---------------------|
B----------3----------|
G------------0--0-----|
D-------2-----2-------| x4 [First time don't hammer on]
A-0h2-----------------|
E---------------------|


e------------------------|           
B-------3----------------|            
G----------0----0--------|           
D----3-------3-----------| x4     
A-3----------------------|           
E------------------------| 

e----------------------------|
B------3-------------3---1-0-|
G--------0---0---------0---0-|
D----2-----2-------2---------| 
A-2-------------0h2----------|
E----------------------------|

e-------------|
B----3--------|
G-----0-0-----|
D------2------| x2
A--2----------|
E-3-----------|


Chorus

C Gadd11 Csus4 x2
Am7 C Csus4 x2
Am7 Csus4

Outro
e------------------------|           
B-------3----------------|            
G----------0----0--------|           
D----2-------2-----------| x8     
A-3----------------------|           
E------------------------|   

End note 
Cadd 9

Charlie Simpson
Please Let Me Go
Young Pilgrim Bonus Track

Please hold my hand tonight cause its so cold outside
And the trees are whistling to themselves, just trying to keep warm
And i'm feeling so alone, like a dog without a bone
Just please keep still, cause I don't need this

And please just let me go
Oh please just let me go
Cause I don't want you, I don't need you anymore
I don't want you, no, I don't need you anymore

Oh just keep hold of your wits son, there's still so much for you to learn
Though i'm pushing you so hard I can't bare to see you fall down
Oh but please keep still, cause I don't want this

And please just let me go
Oh please just let me go
Cause I don't want you, I don't need you anymore
I don't want you, no, I don't need you anymore
Well I don't want you, I don't need you anymore
Tap to rate this tab
 
# A B C D E F G H I J K L M N O P Q R S T U V W X Y Z