Song name
# A B C D E F G H I J K L M N O P Q R S T U V W X Y Z

Charlie Simpson - Down Down Down tab

-----------------------------------------------------------------------------
			     DOWN DOWN DOWN - Charlie Simpson
-----------------------------------------------------------------------------
Tabbed by: Tom
Email: t.loud@hotmail.com
if you think its wrong let me no where i think its mostly right i based it on a live 
performance: http://www.youtube.com/watch?v=dYJXWg9Us-8&feature=related

love the song :), standard tuning

all the fingerpicking is similar to the pattern of this

E|------------     E------------|
B|--8-----8---     B-0-----0----|
G|----0-----0   or G---0-----0--|
D|------0-----     D-----0------|
A|--7-----7---     A-0-----0----|
e-------------     e------------|

but its best to watch and listen to the video of him playing it and see the way he does it.


Intro:
e|--------------------------|
B|--8-----8---7---5---------|
G|----0-----0-------0-------|   x2
D|------0-------------0-----|
A|--7-----7---5-0-3---------|
E|--------------------------|

Verse:

e|--------------------------|
B|--8-----8---7---5---------|
G|----0-----0-------0-------|   x8
D|------0-------------0-----|
A|--7-----7---5-0-3---------|
E|--------------------------|

Chorus:

e|-0-3-3-x-x-x-x--x---|
B|-2-3-2-5-7-2-9--7---|
G|-2-2-0-0-0-0-0--0---|   x2 same picking pattern as intro x7008x on
D|-1-0-0-0-0-0-0--0---|       all chords chords but pause on the last x7008x
A|-0-1-0-7-8-3-10-8---|
E|-0-0-0-x-x-x-x--x---|


verse x8

chorus x2 again but at the end play this instead of playing x90010x and x7008x
strum these:
e|---10-10-------8-8---------------|
B|--h9--0-------h7-0---------------|
G|---0--0---x1---0-0--x6ish--------|   x1 at end of second play of chorus
D|---0--0--------0-0---------------|
A|---10-10-------8-8---------------|
E|---0--0--------0-0---------------|

e|--3-3------x-----x------------|
B|-h2-0------5-----3------------|
G|--0-0------4-----2------------|   x4
D|--0-0--x6--0-x3--0---x3-------|
A|--3-3------5-----3------------|
E|--0-0------0-----0------------|


outro:

e|-3-2-0-3-3-0-0-3------------------|  all finger picked similarly to x7008x
B|-2-0-2-3-2-2-2-3------------------|   apart from the last chord
G|-0-0-2-2-0-0-2-2------------------|   x1 strum slowly last 332010
D|-0-0-0-0-0-0-1-0------------------|
A|-3-3-3-1-3-2-0-1------------------|
E|-0-0-0-0-0-0-0-0------------------|




Thanks :)
Tap to rate this tab
# A B C D E F G H I J K L M N O P Q R S T U V W X Y Z