Song name
# A B C D E F G H I J K L M N O P Q R S T U V W X Y Z

Charlie Simpson - Please Let Me Go tab

Little tweak to what was already on here.

Intro x2
e--------------------------|
B---------3----------------|
G------------0----0--------|
D------2-------2-----------| x4  (Don't hammer the first time)
A-0h3----------------------|
E--------------------------|

e---------------------|
B----------3----------|
G------------0--0-----|
D-------2-----2-------| x4 (Don't hammer the first time)
A-0h2-----------------|
E---------------------|


Verse


e--------------------------|
B---------3----------------|
G------------0----0--------|
D------2-------2-----------| x4  (Don't hammer the first time)
A-0h3----------------------|
E--------------------------|


e---------------------|
B----------3----------|
G------------0--0-----|
D-------2-----2-------| x4 (Don't hammer the first time)
A-0h2-----------------|
E---------------------|


e------------------------|
B-------3----------------|
G----------0----0--------|
D----3-------3-----------| x4
A-3----------------------|
E------------------------|

e----------------------------|
B------3-------------3---1-0-|
G--------0---0---------0---0-|
D----2-----2-------2---------|
A-2-------------0h2----------|
E----------------------------|

e-------------|
B----3--------|
G-----0-0-----|
D------2------| x2
A--2----------|
E-3-----------|


e------------------------|
B-------3----------------|
G----------0----0--------|
D----3-------3-----------| x4
A-3----------------------|
E------------------------|

e----------------------------|
B------3-------------3---1-0-|
G--------0---0---------0---0-|
D----2-----2-------2---------|
A-2-------------0h2----------|
E----------------------------|

e-------------|
B----3--------|
G-----0-0-----|
D------2------| x2
A--2----------|
E-3-----------|

Pre Chorus


e--------------------------------|
B---- 3----------3--------3------|
G------0--0-------0-0-----0-0----|
D---2---2------2---2----2--2-----|
A-0-----------2--------3---------|
E--------------------------------|

e-------------------|
B---- 3-------------|
G------0--0---------|
D---2---2-----------|
A-0-----------------|
E-------------------|


e--------------------|
B---- 3--------------|
G------0--0----------|
D---2---2------------|  x4
A-2------------------|
E--------------------|

CHORUS

C           G     F
please just let me go
C           G     F
please just let me go
Am
cause i don't want you
Am        C           F
i don't need you anymore
Am
i don't want you
Am     F                                    (strum once on the F)
i don't need you anymore


Instrumental (Same as intro)
e--------------------------|
B---------3----------------|
G------------0----0--------|
D------2-------2-----------| x4  (Don't hammer the first time)
A-0h3----------------------|
E--------------------------|


e---------------------|
B----------3----------|
G------------0--0-----|
D-------2-----2-------| x4 (Don't hammer the first time)
A-0h2-----------------|
E---------------------|

Verse 2

e--------------------------|
B---------3----------------|
G------------0----0--------|
D------2-------2-----------| x4  (Don't hammer the first time)
A-0h3----------------------|
E--------------------------|


e---------------------|
B----------3----------|
G------------0--0-----|
D-------2-----2-------| x4 (Don't hammer the first time)
A-0h2-----------------|
E---------------------|


e------------------------|
B-------3----------------|
G----------0----0--------|
D----3-------3-----------| x4
A-3----------------------|
E------------------------|

e----------------------------|
B------3-------------3---1-0-|
G--------0---0---------0---0-|
D----2-----2-------2---------|
A-2-------------0h2----------|
E----------------------------|

e-------------|
B----3--------|
G-----0-0-----|
D------2------| x2
A--2----------|
E-3-----------|

Pre Chorus


e--------------------------------|
B---- 3----------3--------3------|
G------0--0-------0-0-----0-0----|
D---2---2------2---2----2--2-----|
A-0-----------2--------3---------|
E--------------------------------|

e-------------------|
B---- 3-------------|
G------0--0---------|
D---2---2-----------|
A-0-----------------|
E-------------------|


e--------------------|
B---- 3--------------|
G------0--0----------|
D---2---2------------|  x4
A-2------------------|
E--------------------|

CHORUS

C            G    F
please just let me go
C            G    F
please just let me go
               Am
cause i don't want you
Am       C        F
i don't need you anymore
Am
i don't want you
Am      F         C
i don't need you anymore
Am
and i don't want you
Am      F
i don't need you anymore

Outro
e--------------------------|
B---------3----------------|
G------------0----0--------|
D------2-------2-----------| x4  (Don't hammer the first time)
A-0h3----------------------|
E--------------------------|

End note
Cadd 9
Tap to rate this tab
# A B C D E F G H I J K L M N O P Q R S T U V W X Y Z