Song name
# A B C D E F G H I J K L M N O P Q R S T U V W X Y Z

Charlie Winston - Lift Me Gently tab

Charlie Winston  Lift Me Gently

e---------------------------------------------------------------------------|
B------0-----0--0-----0-----0------0-----0------------0--0-----0--0--0--0---|
G------4-----4--4-----4-----4-----34-----4------6-----8--8--8--8--8--8--8---|
D---------6--------6----------------------------------9--9--------9--9--9---|
A---------------------------------------------------------------------------|
E----4-------------------4-----3------4-----/6-----7------------------------|


e---------------------------------|
B-------0-----0-----0-----0-----0-|
G-------9-----8-----6-----4-----3-|     ETC
D-------9-------------------------|  
A---------------------------------|
E----9-----7-----6-----4-----3----|




e------------------0------------------------------0------------------------0|
B------------------------0------------------------------0------------0------|
G------------0--------0--------------------0---------0-----------------0--0-|
D---------------4------------------------------4-------------------------4--|
A---------7-----------------------------5--------------------------5--------|
E----(0)--------------------------------------------------------------------|


e--------------0--------------------------0-----------------0---------------|
B--------------------0--------------------------0-----------------0---------|
G--------0--------0-----------------0--------0--------0--------0------------|
D-----------4--------------------------7-----------------7------------------|
A-----3--------------------------------------------------------------0------|
E--------------------------------8-----------------8------------------------|
Tap to rate this tab
 
# A B C D E F G H I J K L M N O P Q R S T U V W X Y Z