Song name
# A B C D E F G H I J K L M N O P Q R S T U V W X Y Z

Charlotte Dipanda - My Love tab

the lyrics are available on the website of charlotte DIPANDA www.charlotte dipanda.com


      F                              Am                             
      E  E  E  E   E    E   E  E     E   E   E  E   E    E   E  E   
E||------------1------------0-----|-------------1------------0-----|
B||---------1-----(1)----------1--|----------1-----(1)----------1--|
G||*-----2-------------(2)--------|-----(2)-------------(2)--------|
D||*--3---------------------------|--2-----------------------------|
A||-------------------------------|--------------------------------|
E||-------------------------------|--------------------------------|


  Dm                                                      
  E   E   E  E   E   E  E  E     E  E   E   E  Q    Q     
-------------1----------0-----|-------------0--1----3----|
----------3-----(3)--------1--|--------(1)---------------|
-----(2)-------------2--------|-----0--------------------|
--0---------------------------|--2-----------------------|
------------------------------|--------------------------|
------------------------------|--------------------------|


  F                              Am                           
  E   E   E  E   E   E  E  E     E   E   E  E   E   E  E  E   
-------------1----------0-----|-------------1----------0-----|
----------1-----(1)--------1--|----------1-----(1)--------1--|
-----(2)-------------2--------|-----(2)-------------2--------|
--3---------------------------|--2---------------------------|
------------------------------|------------------------------|
------------------------------|------------------------------|


  Dm                             C                         
  E   E   E  E   E   E  E  E     E  E  E  Q    E   Q       
-------------1----------0-----|-----------1----0h--1-----||
----------3-----(3)--------1--|--------1-----------------||
-----(2)-------------2--------|-----0-------------------*||
--0---------------------------|--2----------------------*||
------------------------------|--------------------------||
------------------------------|--------------------------||


  E  E  E  E   E   E  E  E     E   E   E  E  E  E  E  E   
-----------1----------0-----|-------------1--------0-----|
--------1-----(1)--------1--|----------1-----1--------1--|
-----2-------------2--------|-----(2)-----------2--------|
--3-------------------------|--2-------------------------|
----------------------------|----------------------------|
----------------------------|----------------------------|


  E   E   E  E  E  E  E  E     E   E   E  E  E   E  E   E    
-------------1--------0-----|-------------0--1p--0----------|
----------3-----3--------1--|----------1------------1-------|
-----(2)-----------2--------|-----(0)------------------(0)--|
--0-------------------------|--2----------------------------|
----------------------------|-------------------------------|
----------------------------|-------------------------------|


                                   B                            
  E   E   E  E   E   E  E   E      E   E   E  E   E   E  E  E   
-------------1------------------|-------------1----------------|
----------3-----(3)-------------|----------3-----(3)-----------|
-----(2)-------------2-----(2)--|-----(3)-------------3-----3--|
--0---------------------0-------|--3---------------------3-----|
--------------------------------|------------------------------|
--------------------------------|------------------------------|


  E  E   E   Q    E  Q        W                    E   E   E  E   E   E  E  E   
-------------0------------|--(0)----------------|-------------1----------0-----|
--------(1)-------1-------|--(1)----------------|----------1-----(1)--------1--|
-----0---------------0----|--(0)----------------|-----(2)-------------2--------|
--2-----------------------|--(2)----------------|--3---------------------------|
--------------------------|--(3)----------------|------------------------------|
--------------------------|---------------------|------------------------------|


  E   E   E  E   E   E  E  E     E  E  E  E  E  E  E  E   
-------------1----------0-----|-----------1--------0-----|
----------1-----(1)--------1--|--------3-----3--------1--|
-----(2)-------------2--------|-----2-----------2--------|
--2---------------------------|--0-----------------------|
------------------------------|--------------------------|
------------------------------|--------------------------|


  E  E  E  E  Q    Q       E  E  E  E   E   E  E  E   
-----------0--1----3----|-----------1----------0-----|
--------1---------------|--------1-----(1)--------1--|
-----0------------------|-----2-------------2--------|
--2---------------------|--3-------------------------|
------------------------|----------------------------|
------------------------|----------------------------|


  E  E  E  E   E   E  E  E     E  E  E  E   E   E  E  E   
-----------1----------0-----|-----------1----------0-----|
--------1-----(1)--------1--|--------3-----(3)--------1--|
-----2-------------2--------|-----2-------------2--------|
--2-------------------------|--0-------------------------|
----------------------------|----------------------------|
----------------------------|----------------------------|


  E  E  E  Q    E   Q       E  E  E  E   E   E  E  E   
-----------1----0h--1----|-----------1----------0-----|
--------1----------------|--------1-----(1)--------1--|
-----0-------------------|-----2-------------2--------|
--2----------------------|--3-------------------------|
-------------------------|----------------------------|
-------------------------|----------------------------|


  E  E  E  E   E   E  E  E     E  E  E  E   E   E  E  E   
-----------1----------0-----|-----------1----------0-----|
--------1-----(1)--------1--|--------3-----(3)--------1--|
-----2-------------2--------|-----2-------------2--------|
--2-------------------------|--0-------------------------|
----------------------------|----------------------------|
----------------------------|----------------------------|


  E  E  E  E  E   E  E  E     E  E  E  E  E   E   E  E   
-----------0--1p--0--------|-----------1----------------|
--------1------------1-----|--------3-----3-------------|
-----0------------------0--|-----2-----------(2)-----2--|
--2------------------------|--0-------------------0-----|
---------------------------|----------------------------|
---------------------------|----------------------------|


  E   E   E  E   E   E  E  E     E  E   E   Q    E  Q        W                  
-------------1----------------|-------------0------------|---0--------------|
----------3-----(3)-----------|--------(1)-------1-------|---1--------------|
-----(3)-------------3-----3--|-----0---------------0----|---0--------------|
--3---------------------3-----|--2-----------------------|--(2)-------------|
------------------------------|--------------------------|--(3)-------------|
------------------------------|--------------------------|------------------|


    E   E   E  E   E   E  E  E     E   E   E  E   E   E  E  E   
|--------------1----------------|-------------1----------------|
|-----------1-----(1)-----------|----------3-----(3)-----------|
|*-----(2)-------------2-----2--|-----(2)-------------2-----2--|
|*--3---------------------3-----|--0---------------------0-----|
|-------------------------------|------------------------------|
|-------------------------------|------------------------------|


  E   E   E  E   E   E  E  E     E   E   E  E  Q    Q     5x
-------------1----------------|-------------0--1----3-----||
----------3-----(3)-----------|----------1----------------||
-----(3)-------------3-----3--|-----(0)------------------*||
--3---------------------3-----|--2-----------------------*||
------------------------------|---------------------------||
------------------------------|---------------------------||


  E   E   E  E   E   E  E  E     E  E   E   E  E  E  E  E   
-------------1----------------|-------------1--------------|
----------1-----(1)-----------|--------(3)-----3-----------|
-----(2)-------------2-----2--|-----2-------------2-----2--|
--3---------------------3-----|--0-------------------0-----|
------------------------------|----------------------------|
------------------------------|----------------------------|


  E   E   E  Q    E  Q       E  E   E   Q    E  Q     
-------------1------------|-------------0------------|
----------3-------3-------|--------(1)-------1-------|
-----(3)-------------3----|-----0---------------0----|
--3-----------------------|--2-----------------------|
--------------------------|--------------------------|
--------------------------|--------------------------|


    E  E  E  E  E  E  E  E     E  E   E   E  E  E  E  E   
|------------1--------0-----|-------------1--------0-----|
|---------1-----1--------1--|--------(1)-----1--------1--|
|*-----2-----------2--------|-----2-------------2--------|
|*--3-----------------------|--2-------------------------|
|---------------------------|----------------------------|
|---------------------------|----------------------------|


  E  E   E   E  E  E  E  E     E  E  E  E  Q    Q     
-------------1--------0-----|-----------0--1----3----|
--------(3)-----3--------1--|--------1---------------|
-----2-------------2--------|-----0------------------|
--0-------------------------|--2---------------------|
----------------------------|------------------------|
----------------------------|------------------------|


  E  E   E   E  E  E  E  E     E  E   E   E  E  E  E  E   
-------------1--------0-----|-------------1--------0-----|
--------(1)-----1--------1--|--------(1)-----1--------1--|
-----2-------------2--------|-----2-------------2--------|
--3-------------------------|--2-------------------------|
----------------------------|----------------------------|
----------------------------|----------------------------|


  E  E   E   E  E  E  E  E     E   E   E  Q    E   Q       
-------------1--------0-----|-------------1----0h--1-----||
--------(3)-----3--------1--|----------1-----------------||
-----2-------------2--------|-----(0)-------------------*||
--0-------------------------|--2------------------------*||
----------------------------|----------------------------||
----------------------------|----------------------------||


  E  E   E   E  E  E  E  E     E   E   E  E  E  E  E  E   
-------------1--------0-----|-------------1--------0-----|
--------(1)-----1--------1--|----------1-----1--------1--|
-----2-------------2--------|-----(2)-----------2--------|
--3-------------------------|--2-------------------------|
----------------------------|----------------------------|
----------------------------|----------------------------|


  E   E   E  E  E  E  E  E     E  E   E   E  Q    Q     
-------------1--------0-----|-------------0--1----3----|
----------3-----3--------1--|--------(1)---------------|
-----(2)-----------2--------|-----0--------------------|
--0-------------------------|--2-----------------------|
----------------------------|--------------------------|
----------------------------|--------------------------|


  E  E   E   E  E  E  E  E     E   E   E  E  E  E  E  E   
-------------1--------0-----|-------------1--------0-----|
--------(1)-----1--------1--|----------1-----1--------1--|
-----2-------------2--------|-----(2)-----------2--------|
--3-------------------------|--2-------------------------|
----------------------------|----------------------------|
----------------------------|----------------------------|


  E   E   E  E  E  E  E  E     E  E  E  Q    E   Q     
-------------1--------0-----|-----------1----0h--1----|
----------3-----3--------1--|--------1----------------|
-----(2)-----------2--------|-----0-------------------|
--0-------------------------|--2----------------------|
----------------------------|-------------------------|
----------------------------|-------------------------|


  E  E  E  E  E  E  E  E     E  E  E  E  E  E  E  E   
-----------1--------0-----|-----------1--------0-----|
--------1-----1--------1--|--------1-----1--------1--|
-----2-----------2--------|-----2-----------2--------|
--3-----------------------|--2-----------------------|
--------------------------|--------------------------|
--------------------------|--------------------------|


  E  E  E  E  E  E  E  E     E  E  E  E  E   E  E  E   
-----------1--------0-----|-----------0--1p--0--------|
--------3-----3--------1--|--------1------------1-----|
-----2-----------2--------|-----0------------------0--|
--0-----------------------|--2------------------------|
--------------------------|---------------------------|
--------------------------|---------------------------|


  E  E  E  E  E  E  E  E     E  E  E  E  E  E  E  E     E  E  E  Q    E  Q     
-----------1--------------|-----------1--------------|-----------0----------|
--------3-----3-----------|--------3-----3-----------|--------1-------1-----|
-----2-----------2-----2--|-----3-----------3-----3--|-----0-------------0--|
--0-----------------0-----|--3-----------------3-----|--2-------------------|
--------------------------|--------------------------|----------------------|
--------------------------|--------------------------|----------------------|


  W                     E   E   E  E  E  E  E  E     E   E   E  E  E  E  E  E   
--0----------------||--------------1--------------|-------------1-----------|
--1----------------||-----------1-----1-----------|----------3-----3--------|
--0----------------||*-----(2)-----------2-----2--|-----(2)----------2----2-|
--2----------------||*--3-------------------3-----|--0-------------------0--|
--3----------------||-----------------------------|-------------------------|
-------------------||-----------------------------|-------------------------|


  E   E   E  E  E  E  E  E     E  E  E  E  Q     Q      5x
-------------1--------------|-----------0--1----(3)-----||
----------3-----3-----------|--------1------------------||
-----(3)-----------3-----3--|-----0--------------------*||
--3-------------------3-----|--2-----------------------*||
----------------------------|---------------------------||
----------------------------|---------------------------||


  E  E  E  E  E   E   E  E     E  E  E  E   E   E  E  E   
-----------1----------------|-----------1----------------|
--------1-----1-------------|--------3-----(3)-----------|
-----2-----------(2)-----2--|-----2-------------2-----2--|
--3-------------------3-----|--0-------------------0-----|
----------------------------|----------------------------|
----------------------------|----------------------------|


  E  E   E   Q    E  Q       E  E  E  Q    E  Q     
-------------1------------|-----------0------------|
--------(3)-------3-------|--------1-------1-------|
-----3---------------3----|-----0-------------0----|
--3-----------------------|--2---------------------|
--------------------------|------------------------|
--------------------------|------------------------|


    E  E  E  E  E  E  E  E     E  E  E  E  E   E   E  E   
|------------1--------0-----|-----------1----------0-----|
|---------1-----1--------1--|--------1-----1----------1--|
|*-----2-----------2--------|-----2-----------(2)--------|
|*--3-----------------------|--2-------------------------|
|---------------------------|----------------------------|
|---------------------------|----------------------------|


  E  E  E  E  E  E  E  E     E  E  E  E  Q    Q       
-----------1--------0-----|-----------0--1----3-----||
--------3-----3--------1--|--------1----------------||
-----2-----------2--------|-----0------------------*||
--0-----------------------|--2---------------------*||
--------------------------|-------------------------||
--------------------------|-------------------------||


  E  E  E  E  E  E  E  E     E  E  E  E  E  E  E  E   
-----------1--------0-----|-----------1--------0-----|
--------1-----1--------1--|--------1-----1--------1--|
-----2-----------2--------|-----2-----------2--------|
--3-----------------------|--2-----------------------|
--------------------------|--------------------------|
--------------------------|--------------------------|


  E  E  E  E  E  E  E  E     E  E  E  Q    E   Q     
-----------1--------0-----|-----------1----0h--1----|
--------3-----3--------1--|--------1----------------|
-----2-----------2--------|-----0-------------------|
--0-----------------------|--2----------------------|
--------------------------|-------------------------|
--------------------------|-------------------------|


   T   T  T T T W.               Q    S.    W.               H          
----------------1------------------------|----------------------------||
--------------1--------------------------|----------------------------||
------------2----------------------------|----------------------------||
----------3------------------------------|----------------------------||
------(3)--------------------------------|----------------------------||
--(1)------------------------------------|----------------------------||




Duration Legend
---------------
W - whole
H - half
Q - quarter
E - 8th
S - 16th
T - 32nd
X - 64th
. - note dotted
|-n-|  - n-tuplets


Tablature Legend
----------------
L - tied note
x - dead note
g - grace note
(n) - ghost note
> - accentuded note
NH - natural harmonic
AH - artificial harmonic
TH - tapped harmonic
SH - semi harmonic
PH - pitch harmonic
h - hammer on
p - pull off
b - bend
br - bendRelease
pb - preBend
pbr - preBendRelease
brb - bendReleaseBend
\n/ - tremolo bar dip
\n - tremolo bar dive
-/n - tremolo bar Release up
/n\ - tremolo bar inverted dip
/n - tremolo bar return
-\n - tremolo bar Release down
S - shift slide
s - legato slide
/ -  slide into from below or out of upwards
\ -  slide into from above or out of downwards
~ - vibrato
W - wide vibrato
tr - trill
TP - tremolo picking
T - tapping
S - slap
P - pop
< - fade in
^ - brush up
v - brush down
Tap to rate this tab
# A B C D E F G H I J K L M N O P Q R S T U V W X Y Z