Song name
# A B C D E F G H I J K L M N O P Q R S T U V W X Y Z

Charly Garcia - Popotitos tab

Popotitos


Riff 1  x4
E-------------------------------------------|
B-------------------------------------------|
G-------------------------------------------|
D---------------------2-2-0-----------------|
A---------------2-4-----------4-2-----------|
E-----0-0-3-4-------------------------------|

Riff 2  x4
E-------------------------------------------|
B-------------------------------------------|
G---------------------2-2-0-----------------|
D---------------2-4-----------4-2-----------|
A-----0-0-3-4-------------------------------|
E-------------------------------------------|


E----------------------------------------------|
B----------------------------------------------|
G----------------------------------------------|
D----------------------------------------------|
A------------6-6--7-7-8--9---------------------|
E------7-7-------------------------------------|


E----------------------------------------------|
B----------------------------------------------|
G----------------------------------------------|
D----------------------------------------------|
A---------4-4-5-5-6--7-------------------------|
E----5-5---------------------------------------|

Repita riff 1 x1

THAKS!
OUT FO MIND!!! MONTE SAN GIUSTO ITALY!!!!!
Tap to rate this tab
 
# A B C D E F G H I J K L M N O P Q R S T U V W X Y Z