Song name
# A B C D E F G H I J K L M N O P Q R S T U V W X Y Z

Charly - Scheiss Drauf tab

INTRO(1st Guitar, intro, bridge, refrain):

e|1-1-------4-4----|
b|---1-1-2-2---4-4-|
G|-----------------|
D|-----------------|
A|-----------------|
E|-----------------|

Then enter 2nd guitar(Intro,Refrain)...

e|-----------------------|
b|-----------------------|
G|-----------------------|
D|3-3-3-3-4-4-6-6-6-6-6-6|
A|1-1-3-3-4-4-4-4-6-6-6-6|
E|----1-1-2-2-----4-4-4-4|


and Bass(plays troughout the song):

G|--------------------|
D|--------------------|
A|1-1-------4-4-------|
E|---1-1-2-2---4-4-4-4|
Tap to rate this tab
# A B C D E F G H I J K L M N O P Q R S T U V W X Y Z