Guitaretab - guitar tabs
Song name
# A B C D E F G H I J K L M N O P Q R S T U V W X Y Z

Charly - Fucking School tab

INTRO(1st Guitar):

e|-----------------------------|
b|3-0-2-0-3-0-2-0-3-0-2-0-3-3-3|
G|-----------------------------|
D|-----------------------------|
A|-----------------------------|
E|-----------------------------|

e|-----------------------------|
b|3-0-2-0-3-0-2-0-3-0-2-0------|
G|------------------------2-2--|
D|-----------------------------|
A|-----------------------------|
E|-----------------------------|


[ Tab from: http://www.guitaretab.com/c/charly/53497.html ]
Bass(after 2 times(intro), throughout the song):
G|---------------------------|
D|---------------------------|
A|---------------------------|
E|7-7-7-8-8-8-8-5-5-5-4-4-4-4|

G|---------------------------|
D|---------------------------|
A|---------------------------|
E|7-7-7-9-9-9-9-6-6-6-5-5-5-5|


2nd guitar(chorus,Intro):

e|---------------------------------|
b|---------------------------------|
G|---------------------------------|
D|9-9-9-10-10-10-10--7-7-7--6-6-6-6|
A|9-9-9-10-10-10-10--7-7-7--6-6-6-6|
E|7-7-7--8--8--8--8--5-5-5--4-4-4-4|

e|---------------------------------|
b|---------------------------------|
G|---------------------------------|
D|9-9-9-11-11-11-11--8-8-8--7-7-7-7|
A|9-9-9-11-11-11-11--8-8-8--7-7-7-7|
E|7-7-7--9--9--9--9--6-6-6--5-5-5-5|
Related for Fucking School tab