Song name
# A B C D E F G H I J K L M N O P Q R S T U V W X Y Z

Chase And Status - Heartbeat tab

i dont know the beginning as its all piano

e----------------------------------|
B----------------------------------|
G----------------------------------|
D--9x16-5x8-7x8--------------------|
A--9x16-5x8-7x8--x4----------------|
D--9x16-5x8-7x8--------------------|
   "ca-a-an you fe-e-el"

e----------------------------------|
B----------------------------------|
G-----7-----6-----4-----6----------|
D--9-----7-----5-----7-------------|
A--9-----7-----5-----7-------------|
D--9-----7-----5-----7-------------|

final chorus bit
e-----------------------------------|
B-----------------------------------|
G-----------------------------------|
D--9-----7-----5-----7--------------|
A--9-x4--7-x4--5-x4--7-x4-----------|
D--9-----7-----5-----7--------------|
"-----------------------------------|ca-a-an you fe-e-el my hear-ar-ar-ar-art is beating"
Tap to rate this tab
# A B C D E F G H I J K L M N O P Q R S T U V W X Y Z