Song name
# A B C D E F G H I J K L M N O P Q R S T U V W X Y Z

Chase And Status - Pieces tab

-------------------------------------------------------------------------------
			     Pieces - Chase and Status ft PlanB
-------------------------------------------------------------------------------
Tabbed by: Louis


Tuning:Standard

Here is a link to the video if you want to learn the strumming pattern
http://www.youtube.com/watch?v=8MJspL232c8

e|-4-4-4-4-4--7-7-7-7-7--2-2-2-2-2--0-0-0-0-0-----------|
B|-4-4-4-4-4--7-7-7-7-7--2-2-2-2-2--0-0-0-0-0-----------|
G|-5-5-5-5-5--8-8-8-8-8--3-3-3-3-3--1-1-1-1-1-----------|
D|-6-6-6-6-6--9-9-9-9-9--4-4-4-4-4--2-2-2-2-2-----------|
A|-6-6-6-6-6--9-9-9-9-9--4-4-4-4-4--2-2-2-2-2-----------|
E|-4-4-4-4-4--7-7-7-7-7--3-3-3-3-3--0-0-0-0-0-----------| x6

e|-4-4-4--3-3--1--------------------------------------|
B|-4-4-4--3-3--1--------------------------------------|
G|-5-5-5--4-4--2--------------------------------------|
D|-6-6-6--5-5--3--------------------------------------|
A|-6-6-6--5-5--3--------------------------------------|
E|-4-4-4--3-3--1--------------------------------------| Until end of song.

There may be some things I haven't added but I think i got most things
 
Tap to rate this tab
# A B C D E F G H I J K L M N O P Q R S T U V W X Y Z