Song name
# A B C D E F G H I J K L M N O P Q R S T U V W X Y Z

Chase Coy - Wounded tab

Artist:  Chase Coy
Title:   Wounded


   Your words are full of honesty...
E-----------------------------|
B---3------2-------------0----|
G-----2------2----2-2------2--|  x2
D----0------2------0------0---|
A--2------0-------------------|
E----------------2------3-----|

   Yesterday feels like a fresh wound...
E---------------------------------------|
B---3---3----2---2-------------0---0----|
G-----2---2----2---2--2-2-2-2----2---2--|
D----0---0----2---2----0---0----0---0---|
A--2---2----0---0-----------------------|
E--------------------2---2----3---3-----|

   This is my reply for all the...
E--------------------------------------|
B---3---3----2---2------------0000000--|
G-----2---2----2---2--2-2-2-2-0000000--|
D----0---0----2---2----0---0--0000000--|
A--2---2----0---0-------------2222222--|
E--------------------2---2----3333333--|


SOLO #1 (Guitar 1)
E--10-9-7-5----------------------------------------|
B-------------5-7-8-7-3---8-7-3-2-0-2-3-2----2--3--|
G-----------------------------------------2--------|
D--------------------------------------------------|
A--------------------------------------------------|
E--------------------------------------------------|

SOLO #1 (Guitar 2)
E--------------------------------------|
B--3333333--22-2222-----------00-0-00--|
G--2222222--22-2222--22-2-22--00-0-00--|
D--0000000--22-2222--22-2-22--00-0-00--|
A--2222222--00-0000--00-0-00--22-2-22--|
E--------------------22-2-22--33-3-33--|

E---------------------------------------|
B--33-3-33--22-2222---------0--0000000--|
G--22-2-22--22-2222--22222220--0000000--|
D--00-0-00--22-2222--22222220--0000000--|
A--22-2-22--00-0000--00000002--2222222--|
E--------------------22222223--3333333--|


CHORUS
   Don't count on me...
E----------------------------------------|
B--3-333-33--22-2222------------00-0000--|
G--2-222-22--22-2222--2-222222--00-0000--|  x4
D--0-000-00--22-2222--2-222222--00-0000--|
A--2-222-22--00-0000--0-000000--22-2222--|
E---------------------2-222222--33-3333--|
(The strumming changes a little every time
it goes through the chords.)


SOLO #2 (Guitar 1)
E--10-9-5-5/7--5---7-5-3-2--------------------------------|
B--------------------------3---2/3-5/7-8/7-5/3-2-0-2-2/3--|
G---------------------------------------------------------|
D---------------------------------------------------------|
A---------------------------------------------------------|
E---------------------------------------------------------|

SOLO #2 (Guitar 2)
E--------------------------------------|
B--3333333--22-2-22-----------00-0000--|
G--2222222--22-2-22--2--2222--00-0000--|
D--0000000--22-2-22--2--2222--00-0000--|
A--2222222--00-0-00--0--0000--22-2222--|
E--------------------2--2222--33-3333--|

E--------------------------------------|
B--3333333--22-2222--------0--0000000--|
G--2222222--22-2222--2-22220--0000000--|
D--0000000--22-2222--2-22220--0000000--|
A--2222222--00-0000--0-00002--2222222--|
E--------------------2-22223--3333333--|

   
   Looking back at all the words...
E---------------------------------|
B--33333----2------------00-0000--|
G--22222----2--2-222-22--00-0000--|  x2
D--00000----2--2-222-22--00-0000--|
A--22222--0-0--0-000-00--22-2222--|
E--------------2-222-22--33-3333--|

   I can't forget your lips...
E---------------------------------------|
B--333-3333--22-2-22-----------00-0000--| 
G--222-2222--22-2-22--2--2-22--00-0000--|  x2
D--000-0000--22-2-22--2--2-22--00-0000--|
A--222-2222--00-0-00--0--0-00--22-2222--|
E---------------------2--2-22--33-3333--|
(The strumming changes a little
the second time through) 


SOLO #3 (Guitar 1)
E--10-9-5-5/7--5---7-5-3-2------------------------|
B--------------------------3---0h2-2/3-3/5-2--/3--|
G-------------------------------------------------|
D-------------------------------------------------|
A-------------------------------------------------|
E-------------------------------------------------|

SOLO #3 (Guitar 2)
E--------------------------------------|
B--3333333--22-2-22-----------00-0000--|
G--2222222--22-2-22--2--2222--00-0000--|
D--0000000--22-2-22--2--2222--00-0000--|
A--2222222--00-0-00--0--0000--22-2222--|
E--------------------2--2222--33-3333--|

E---------------------------------------|
B--3333-33--22-2222------------00-0-00--|
G--2222-22--22-2222--2-222222--00-0-00--|
D--0000-00--22-2222--2-222222--00-0-00--|
A--2222-22--00-0000--0-000000--22-2-22--|
E--------------------2-222222--33-3-33--|


CHORUS
   Don't count on me...
E----------------------------------------|
B--333-3-33--22-2-22------------00-0-00--|
G--222-2-22--22-2-22--222-22-2--00-0-00--|  x4
D--000-0-00--22-2-22--222-22-2--00-0-00--|
A--222-2-22--00-0-00--000-00-0--22-2-22--|
E---------------------222-22-2--33-3-33--|
(Again the strumming change a little each
time through)


LYRICS

Your words are full of honesty.
The kind I breathe, the kind that cuts me deep.
And I am grasping for air, I'm gasping for air now.

Yesterday feels like a fresh wound,
still I insist it's just a flesh wound.
This is my reply for all the pain you've put me through.

Don't count on me.
(Don't count on me)
Don't count on me for anything.
Don't count on me.
(Don't count on me)
Don't count on me for anything.

Looking back at all the words I sent you.
I'm doing my best to forget you.
But it still remains, your name.
The bitter taste on my tongue.
I can't forget your kiss, or the venom on your lips.
This is gonna leave a scar, I am wounded.

Don't count on me.
(Don't count on me)
Don't count on me for anything.
Don't count on me.
(Don't count on me)
Don't count on me for anything. 

Tap to rate this tab
 
# A B C D E F G H I J K L M N O P Q R S T U V W X Y Z