Song name
# A B C D E F G H I J K L M N O P Q R S T U V W X Y Z

Chase Coy - Rainy Day Song tab

Artist:  Chase Coy
Title:   Rainy Day Song 

  Rain rain go away...
E--------------------------0------------0-------|
B------0---------0-----3------3-----3------3----|
G--2---------2-----------2------2-----2------2--|  x4
D----2---------2-------0------------0-----------|
A--0---------0----------------------------------|
E-----------------------------------------------|


   And the clouds will clear...
E-----------------------------------0--------0-----0--------0--|
B-------0----0---------0----0----3----3----3----3----3----3----|
G--2--2--------2--2--2--------2----2-----2--------2-----2------|  x4
D----2-----2--------2-----2------0--------------0--------------|
A--0--------------0--------------------------------------------|
E--------------------------------------------------------------|


   Rain rain go away...
E--------------------------0------------0-------|
B------0---------0-----3------3-----3------3----|
G--2---------2-----------2------2-----2------2--|  x2
D----2---------2-------0------------0-----------|
A--0---------0----------------------------------|
E-----------------------------------------------|

sunshine.
E--------------0--|
B------0-------2--|
G--2------2----2--|
D----2------2--2--|
A--0-----------0--|
E-----------------|


LYRICS

Rain, rain, go away
please come back another day
but not today
'cause i'm not ready
to say goodbye
to these golden rays of sunshine.

i believe, that if you leave
i'll be just fine
yeah, i'll be fine

but for now i'm stuck here waiting for
the sun to come and stop this awful downpour.

and the clouds will clear 
and i will hear the sound of singing birds outside my window

rain, rain, go away 
please come back another day
but not today
'cause i'm not ready 
to say goodbye 
to these golden rays of sunshine.
Tap to rate this tab
 
# A B C D E F G H I J K L M N O P Q R S T U V W X Y Z