Song name
# A B C D E F G H I J K L M N O P Q R S T U V W X Y Z

Chase Coy - If The Moon Fell Down Tonight tab

Hi im here again, this is my second tab ive posted..
So, hope it's right..
I'm 99.9% it's right (:
So, enjoy!

Artist: Chase Coy
Song: If The Moon Fell Down Tonight
Album: Look How Far We've Come

Tuning: Standard, Capo 2 fret.

Note: The intro and the verse sound the same, or i can't see the diference but there's 
one variation; instead of the 1st fret on the B chord is the 3rd fret. I can't tell when 
that, so, you have to listen the song to figure..

INTRO and Verse:
Everytime I see your smile
it makes my heart beat fast
And though it's much too soon to tell
I'm hoping this will last

'Cause I just always wanna have you
Right here by my side
The futures near but never certain
At least stay here for just tonight

E||-------------------------|-------------------------||
B||----------------------1--|-----------1-------------||
G||----------------0--------|-----0----------0-----0--||
D||-------0h--2-------2-----|--------2----------2-----||
A||--3----------------------|-------------------------||
E||-------------------------|-------------------------|| (a lot of times)

E||-------------------------|-------------------------||
B||----------------------1--|-----------3-------------||
G||----------------0--------|-----0----------0-----0--||
D||-------0h--2-------2-----|--------2----------2-----||
A||--3----------------------|-------------------------||
E||-------------------------|-------------------------|| (you have to hear the song to 
this variation)

CHORUS:
     Am        C         F
I must have done something right
      Am        C         F
To deserve you in my life
      Am       C         F                    C
I must have done something right along the way

---------------------------------------------------------------------------
PS.: That's all i've got for now.. enjoy it (:
Tap to rate this tab
# A B C D E F G H I J K L M N O P Q R S T U V W X Y Z