Song name
# A B C D E F G H I J K L M N O P Q R S T U V W X Y Z

Chase Coy - A Lovely Sound tab

Aigghht. Its about time someone made a tab for this.
*SOLO NOT INCLUDED.

CAPO: 3rd Fret

Over fall break you're coming down to see me.
    F           C             Am          G
e|--1-------1------------0------------0---3--|
B|--1------1--1-1----------1--1------1----3--|
G|--2--0-3------0------0------2--0-2----0-0--|
D|--3-----------2--0-2--------2-----------0--|
A|--------------3-------------------------2--|
E|----------------------------------------3--|
                 
e|------------|
B|--------3---|
G|------0-----| 
D|---------0--|
A|--0-2-------|
E|------------|

I know the distance doesnt make this easy.
    F           C             Am          G
e|--1-------1------------0------------0---3--|
B|--1------1--1-1----------1--1------1----3--|
G|--2--0-3------0------0------2--0-2----0-0--|
D|--3-----------2--0-2--------2-----------0--|
A|--------------3-------------------------2--|
E|----------------------------------------3--|
              But when we come together we make such a lovely sound.
              F         C       Am/G/F
e|------------1------1--------0----3-1-------|
B|--------3---1-----1-1-1------1-1-3-1-------|
G|------0-----2--0-3----0----0---2-0-2-0-3---|
D|---------0--3---------2-0-2----2-0-3-------|
A|--0-2-----------------3----------2---------|
E|---------------------------------3---------|
       That's why I'd give anything i have to work this out.
       C   Am        G         C        
e|--1-------------0--3-----------------------|
B|-1---1---1-----1---3------3--1-------------|
G|---0-0---2-0-2---0-0-----0-----------------|
D|-----2---2---------0-------0-2-------------|
A|-----3-------------2--0-2----3-------------|
E|-------------------3-----------------------|


Repeatt Til the end of the song.

Tap to rate this tab
# A B C D E F G H I J K L M N O P Q R S T U V W X Y Z