Song name
# A B C D E F G H I J K L M N O P Q R S T U V W X Y Z

Chase Coy - A Lovely Sound tab

-----------------------------------------------------------------------------
			    A Lovely Sound (solo) - Chase Coy
-----------------------------------------------------------------------------
Tabbed by: ramosjuanpablo
Email: ramosjuanpablo94@gmail.com

This is my first tab, so i hope you like it! :)

e|--11--10--8---------11--10--8---------11--10--8----------------------------|
B|-------------11--8-------------11--6-------------11--8--8--9--11--8--6-----|
G|---------------------------------------------------------------------------|
D|---------------------------------------------------------------------------|
A|---------------------------------------------------------------------------|
E|---------------------------------------------------------------------------|

e|---------------------------------------------------------------------------|
B|------------8---------8--11--9--8--6---------------------------------------|
G|--8--8--10-----8--10------------------8--8--8------------------------------|
D|---------------------------------------------------------------------------|
A|---------------------------------------------------------------------------|
E|---------------------------------------------------------------------------|

e|---------------------------------------------------------------------------|
B|--8--9--11--9--8--6--------------------------------------------------------|
G|---------------------8--8--------------------------------------------------|
D|---------------------------------------------------------------------------|
A|---------------------------------------------------------------------------|
E|---------------------------------------------------------------------------|
Tap to rate this tab
# A B C D E F G H I J K L M N O P Q R S T U V W X Y Z