Song name
# A B C D E F G H I J K L M N O P Q R S T U V W X Y Z

Chase Coy - Dont Fade Away Dont Fall Asleep tab

Hey guys. This is my first tab ever :D This is a really good song and i love the guitar, 
this is the way that i play it, so it isn't 100% accurate, but i think it sounds good. 
and Comment :)

| Update | : instead of the x07900 chord, you can do x02400. they both sound good.

 - Intro -

Guitar 1
e|--5-0-0-4-0-0---------------------------------------------------------|
b|--------------5-0-0-4-0-0-5/7-0-(x12)---------------------------------|
g|----------------------------------------------------------------------|
d|----------------------------------------------------------------------|
a|----------------------------------------------------------------------|
E|----------------------------------------------------------------------|

Guitar 2 (find out strumming patterns on your own)
e|--0----0----0----0----------------------------------------------------|
b|--0----0----0----0----------------------------------------------------|
g|--9----9----6----4---(x2)---------------------------------------------|
d|--7----7----6----2----------------------------------------------------|
a|--7----0----4----2----------------------------------------------------|
E|----------------------------------------------------------------------|
Tap to rate this tab
 
# A B C D E F G H I J K L M N O P Q R S T U V W X Y Z