Song name
# A B C D E F G H I J K L M N O P Q R S T U V W X Y Z

Chase Coy - Picturesque tab

Alright, well this is my first tabs so yeah, and  i had to learn is mostly by ear.
I haven't seen any other tabs of this song so I decided to do some research and make 
so enjoy.
I haven't been playing for long so it should be relatively easy, just check out a video 
him playing it if you need help on finger positions.
I'm not sure about tuning but it sounds right it just standard.

e:-----------------|-----------------|-----------------|-----------------|
B:-2---------------|-4---------------|-0---------------|-----------------|
G:-----0-----0-----|-----0------0----|-----0---------0-|-----------------|
D:---2-----2---2---|---2------2---2--|---2---2-----2---|-----------------|
A:-------3---------|--------3--------|-----------------|------------3----|
E:-----------------|-----------------|----------0------|---3-2-0-2-------|


e:-----------------|-----------------|-3---------------|-----------------|
B:-2---------------|-4---------------|-----------------|-----------------|
G:-----0-----0-----|-----0------0----|-----0-------0---|---0-----0-------|
D:---2-----2---2---|---2------2---2--|---2-------2-----|-2-----2---------|
A:-------3---------|--------3--------|--------3------3-|-----3-----------|
E:-----------------|-----------------|-----------------|-----------------|


e:-----------------|-----------------|-----------------|-----------------|
B:-2---------------|-4---------------|-0---------------|-----------------|
G:-----0-----0-----|-----0------0----|-----0-------0---|----0-----0------|
D:---2-----2---2---|---2------2---2--|---2-------2-----|--2-----2--------|
A:-------3---------|--------3--------|-----------------|-----------------|
E:-----------------|-----------------|--------0------0-|------0----------|


e:-----------------|-----------------|-3---------------|-----------------|
B:-2---------------|-4---------------|-----------------|-----------------|
G:-----0-----0-----|-----0------0----|-----0-------0---|---0-----0-------|
D:---2-----2---2---|---2------2---2--|---2-------2-----|-2-----2---------|
A:-------3---------|--------3--------|--------3------3-|-----3-----------|
E:-----------------|-----------------|-----------------|-----------------|


e:-----------------|-----------------|-----------------|-----------------|
B:-2---------------|-4---------------|-0---------------|-----------------|
G:-----0-----0-----|-----0------0----|-----0-------0---|----0-----0------|
D:---2-----2---2---|---2------2---2--|---2-------2-----|--2-----2--------|
A:-------3---------|--------3--------|-----------------|-----------------|
E:-----------------|-----------------|--------0------0-|------0----------|

this sequence repeats a few times and he only does the first line with the high pitched 
part at the end when he's not singing.
He does another thing that is basically the same thing but I don't really wanna tabs it 
just watch it and if you wanna learn it you can probably get it by mixing these tabs 
his finger placements and beat.
Hope you liked these tabs.
Tap to rate this tab
# A B C D E F G H I J K L M N O P Q R S T U V W X Y Z