Song name
# A B C D E F G H I J K L M N O P Q R S T U V W X Y Z

Chase Coy - November tab

Well I had to learn this by ear and my comps speakers aren't to good so it was difficult 
excuse me if I miss a note or two and I couldn't get the lower notes because I don't 
a good guitar so it'll sound a little high but at least it'll get you started, enjoy.

e:-----------------|-----------------|-----------------|-----------------|
B:-------6---------|--------6--------|-------5---------|-------5---------|
G:-----------------|-----------------|-----------------|-----------------|
D:---7------7---7--|---7-------7---7-|-----------------|-----------------|
A:-8---8------8----|-8---8-------8---|---7------7---7--|---7------7---7--|
E:-----------------|-----------------|-8---8------8----|-8---8------8----|


e:-----------------|-----------------|-----------------|-----------------|
B:-------6---------|-------6---------|------5----------|--------5--------|
G:---7------7---7--|---7-----7---7---|-----------------|-----------------|
D:-8---8------8----|-8---8-----8-----|-----------------|-----------------|
A:-----------------|-----------------|---7-----7---7---|----7------7---7-|
E:-----------------|-----------------|-8---8-----8-----|--8---8------8---|


e:-----------------|-----------------|
B:-------6------8-6|--------6--------|
G:-----------------|-----------------|
D:---7------7------|---7-------7---7-|
A:-8---8------8----|-8---8-------8---|
E:-----------------|-----------------|
Tap to rate this tab
# A B C D E F G H I J K L M N O P Q R S T U V W X Y Z