Song name
# A B C D E F G H I J K L M N O P Q R S T U V W X Y Z

Chase Coy - Picturesque tab

I found this tab on another site, and I tried to play it, and I realized that the person 
posted it had the tab backwards.  So, I fixed it.  Here you go, and enjoy :)

e:-----------------|-----------------|----------0------|---3-2-0-2-------|
B:-------3---------|--------3--------|-----------------|------------3----|
G:---2-----2---2---|--2-------2---2--|---2---2-----2---|-----------------|
D:-----0-----0-----|-----0------0----|-----0---------0-|-----------------|
A:-2---------------|-4---------------|-0---------------|-----------------|
E:-----------------|-----------------|-----------------|-----------------|


e:-----------------|-----------------|-----------------|-----------------|
B:-------3---------|--------3--------|--------3------3-|-----3-----------|
G:---2-----2---2---|---2------2---2--|---2-------2-----|-2-----2---------|
D:-----0-----0-----|-----0------0----|-----0-------0---|---0-----0-------|
A:-2---------------|-4---------------|-----------------|-----------------|
E:-----------------|-----------------|-3---------------|-----------------|


e:-----------------|-----------------|--------0------0-|------0----------|
B:-------3---------|--------3--------|-----------------|-----------------|
G:---2-----2---2---|---2------2---2--|---2-------2-----|--2-----2--------|
D:-----0-----0-----|-----0------0----|-----0-------0---|----0-----0------|
A:-2---------------|-4---------------|-0---------------|-----------------|
E:-----------------|-----------------|-----------------|-----------------|


e:-----------------|-----------------|-----------------|-----------------|
B:-------3---------|--------3--------|--------3------3-|-----3-----------|
G:---2-----2---2---|---2------2---2--|---2-------2-----|-2-----2---------|
D:-----0-----0-----|-----0------0----|-----0-------0---|---0-----0-------|
A:-2---------------|-4---------------|-----------------|-----------------|
E:-----------------|-----------------|-3---------------|-----------------|


e:-----------------|-----------------|--------0------0-|------0----------|
B:-------3---------|--------3--------|-----------------|-----------------|
G:---2-----2---2---|---2------2---2--|---2-------2-----|--2-----2--------|
D:-----0-----0-----|-----0------0----|-----0-------0---|----0-----0------|
A:-2---------------|-4---------------|-0---------------|-----------------|
E:-----------------|-----------------|-----------------|-----------------|
Tap to rate this tab
# A B C D E F G H I J K L M N O P Q R S T U V W X Y Z