Song name
# A B C D E F G H I J K L M N O P Q R S T U V W X Y Z

Chase Coy - Never Change tab

Okay so this is my very first tab and the timing is probably way off but you'll get the gist.
This song is played with a capo on the second fret, but I like to go ahead and play it 
the
third...That's just me. I hope you enjoy.

Intro
e|----3---3-------------3---3---3--------3--------3--------1---1---1---------|
B|------3---3-3---3-------3---3---3-3------3-3------3-3------3---3---3-3-----|
G|---0---0---0-----0---0---0---0---0----0---0----0---0----0---0---0---0------|
D|------------------------------------3--------2--------0--------------------|
A|-3------------2----0-------------------------------------------------------|
E|---------------------------------------------------------------------------|

Verse 1
"If you hear this wherever you are..."
e|----3---3-------------3---3---3--------3--------3--------1---1---1---------|
B|------3---3-3---3-------3---3---3-3------3-3------3-3------3---3---3-3-----|
G|---0---0---0-----0---0---0---0---0----0---0----0---0----0---0---0---0------|
D|------------------------------------3--------2--------0--------------------|
A|-3------------2----0-------------------------------------------------------|
E|---------------------------------------------------------------------------|

"You were brighter than the pale white moon..."
e|----3---3-------------3---3---3--------3--------3--------1---1---1---------|
B|------3---3-3---3-------3---3---3-3------3-3------3-3------3---3---3-3-----|
G|---0---0---0-----0---0---0---0---0----0---0----0---0----0---0---0---0------|
D|------------------------------------3--------2--------0--------------------|
A|-3------------2----0-------------------------------------------------------|
E|---------------------------------------------------------------------------|

e|----2---2---2--------------------------------------------------------------|
B|------3---3---3-3----------------------------------------------------------|
G|---0---0---0---0-----------------------------------------------------------|
D|-0-------------------------------------------------------------------------|
A|---------------------------------------------------------------------------|
E|---------------------------------------------------------------------------|

Chorus 1
"I will always carry you in my heart..."
e|----3--------3--------3--------3--------3--------3--------3--------3-------|
B|------3-3------3-3------3-3------3-3------3-3------3-3------3-3------3-3---|
G|---0---0----0---0----0---0----0---0----0---0----0---0----0---0----0---0----|
D|-------------------------------------3--------2----------------------------|
A|-3--------2--------0--------2--------------------------0--------2----------|
E|---------------------------------------------------------------------------|

"Autumn days will fade away..."
e|----3--------3--------3--------3--------3--------3--------3--------3-------|
B|------3-3------3-3------3-3------3-3------3-3------3-3------3-3------3-3---|
G|---0---0----0---0----0---0----0---0----0---0----0---0----0---0----0---0----|
D|-------------------------------------3--------2----------------------------|
A|-3--------2--------0--------2--------------------------0--------2----------|
E|---------------------------------------------------------------------------|

Post-Chorus
e|----3---3-------------3---3---3--------3--------3--------1---1---1---------|
B|------3---3-3---3-------3---3---3-3------3-3------3-3------3---3---3-3-----|
G|---0---0---0-----0---0---0---0---0----0---0----0---0----0---0---0---0------|
D|------------------------------------3--------2--------0--------------------|
A|-3------------2----0-------------------------------------------------------|
E|---------------------------------------------------------------------------|

Verse 2
"I just need to slow down for a while..."
e|----3---3-------------3---3---3--------3--------3--------1---1---1--------|
B|------3---3-3---3-------3---3---3-3------3-3------3-3------3---3---3-3----|
G|---0---0---0-----0---0---0---0---0----0---0----0---0----0---0---0---0-----|
D|------------------------------------3--------2--------0-------------------|
A|-3------------2----0------------------------------------------------------|
E|--------------------------------------------------------------------------|

"Stay with me until the daylight breaks..."
e|----3---3-------------3---3---3--------3--------3--------1---1---1--------|
B|------3---3-3---3-------3---3---3-3------3-3------3-3------3---3---3-3----|
G|---0---0---0-----0---0---0---0---0----0---0----0---0----0---0---0---0-----|
D|------------------------------------3--------2--------0-------------------|
A|-3------------2----0------------------------------------------------------|
E|--------------------------------------------------------------------------|

e|----2---2---2--------------------------------------------------------------|
B|------3---3---3-3----------------------------------------------------------|
G|---0---0---0---0-----------------------------------------------------------|
D|-0-------------------------------------------------------------------------|
A|---------------------------------------------------------------------------|
E|---------------------------------------------------------------------------|

Chorus 2
"I will always carry you in my heart..."
e|----3--------3--------3--------3--------3--------3--------3--------3-------|
B|------3-3------3-3------3-3------3-3------3-3------3-3------3-3------3-3---|
G|---0---0----0---0----0---0----0---0----0---0----0---0----0---0----0---0----|
D|-------------------------------------3--------2----------------------------|
A|-3--------2--------0--------2--------------------------0--------2----------|
E|---------------------------------------------------------------------------|

"Autumn days will fade away..."
e|----3--------3--------3--------3--------3--------3--------3--------3-------|
B|------3-3------3-3------3-3------3-3------3-3------3-3------3-3------3-3---|
G|---0---0----0---0----0---0----0---0----0---0----0---0----0---0----0---0----|
D|-------------------------------------3--------2----------------------------|
A|-3--------2--------0--------2--------------------------0--------2----------|
E|---------------------------------------------------------------------------|

Ending
e|-3-|
B|-3-|
G|-0-|*Strum
D|-2-|
A|-3-|
E|---|
Tap to rate this tab
 
# A B C D E F G H I J K L M N O P Q R S T U V W X Y Z