Song name
# A B C D E F G H I J K L M N O P Q R S T U V W X Y Z

Chase Coy - Lullaby tab

use pima technique

e|---------------------------------------------|
B|-----3---------3-----------1------------1----|
G|-0-----0--2-------2---0-------0---2--------0-|
D|---2---------0-----------2-----------0-------|X
A|---------------------------------------------|
E|-3--------2-----------3-----------2----------|

e|-3------3------0------0------3--|
B|-3------3------1------1------3--|
G|-0--X2--2--x2--0--x2--2--2x--0--|
D|-2------0------2------0------2--|
A|-0------0------0------0------0--|
E|-3------2------3------2------3--|

e|---------------------------------------------|
B|-----3---------3-----------1------------1----|
G|-0-----0--2-------2---0-------0---2--------0-|
D|---2---------0-----------2-----------0-------|X
A|---------------------------------------------|
E|-3--------2-----------3-----------2----------|

Tap to rate this tab
 
# A B C D E F G H I J K L M N O P Q R S T U V W X Y Z