Song name
# A B C D E F G H I J K L M N O P Q R S T U V W X Y Z

Chase Coy - All Those Nights tab

Chase Coy- All Those Nights (SummerWasAhead Arrangement)
Tabbed and Arranged by: Robert Beasley of EXITto11 and SummerWasAhead

Video of us playing/singing it:
http://www.youtube.com/watch?v=GBc5l2hEpdM

Tuning: C G C G C E

Verse:

E|-------------------------------------------------|
C|-----0-----0-----0-----0-----0-----0-----0-----0-|
G|-------0-----0-----0-----------0-----0-----0-----|
C|---------0-----0-----0-----------0-----0-----0---|
G|-------------------------------------------------|
C|-0-0---------------------0-0---------------------|

E|-------------------------------------------------|
C|-----0-----0-----0-----0-----0-----0-----0-----0-|
G|-------0-----0-----0-----------0-----0-----0-----|
C|---------0-----0-----0-----------0-----0-----0---|
G|-------------------------------------------------|
C|-0-0---------------------0-0---------------------|

E|-------------------------------------------------|
C|-----0-----0-----0-----0-----0-----0-----0-----0-|
G|-------0-----0-----0-----------0-----0-----0-----|
C|---------0-----0-----0-----------0-----0-----0---|
G|-------------------------------------------------|
C|-5-5---------------------0-0---------------------|

Pre Chorus:

E|-------------------------------------------------|
C|-----0-----0-----0----0-----0-----0-----0-----0--|
G|-------0-----------0----------0-----0-----0------|  X2
C|---------0-----------0----------0-----0-----0----|
G|-------------------------------------------------|
C|-2-2---------4-4--------5-5----------------------|

E|-0---0---0---0---0|
C|-0---0---0---0---0|
G|-0---0---0---0---0|
C|-0---0---0---0---0|
G|-x---x---x---x---x|
C|-5---5---5---5---5|

Chorus:

E|-0---0---0---0---0---0---0---0---0|
C|-0---0---0---0---0---0---0---0---0|
G|-0---0---0---0---0---0---0---0---0|
C|-0---5---4---2---0---5---4---2---5|
G|-0---x---x---x---0---x---x---x---x|
C|-0---5---4---2---0---5---4---2---5|

Outro:

E|-0---0---0---0---0---0|
C|-0---0---0---0---0---0|
G|-0---0---0---0---0---0|
C|-2---4---5---2---4---0|
G|-x---x---x---x---x---0|
C|-2---4---5---2---4---0|
Tap to rate this tab
 
# A B C D E F G H I J K L M N O P Q R S T U V W X Y Z