Song name
# A B C D E F G H I J K L M N O P Q R S T U V W X Y Z

Chase Coy - My Heart Will Find Rest tab

Tabbed by: Drew Gribble
Email: drewgribbleacoustic@yahoo.com (or find me on Facebook)

Tuning: Standard 
Capo optional in my opinion if you have a high pitched voice and want to sing it.
Ridiculously easy.

Intro 
       D          G
e|----0h2-0--|------0--|
B|--3------3-|--3----3-|
G|---2-------|---0h2---|
D|-0---------|---------|
A|-----------|---------|
E|-----------|-3-------|

Verse

e|---------------|
B|---3---3---3---|
G|---2---2---0h2-|
D|---0---0-------|
A|-2---0---------|
E|---------3-----|
Tap to rate this tab
 
# A B C D E F G H I J K L M N O P Q R S T U V W X Y Z