Guitaretab - guitar tabs
Song name
# A B C D E F G H I J K L M N O P Q R S T U V W X Y Z

Chase Long Beach - Weve Got Pockets Like Nobodys Business tab

-------------------------------------------------------------------------------
           We've Got Pockets Like Nobody's Business - Chase Long Beach
-------------------------------------------------------------------------------
Tabbed by:Vtrillo627
Email:it_dies_today84@yahoo.com

Tuning:Standard

Link: http://www.myspace.com/chaselongbeach
Label: Victory Records



Intro:

e|--------------------------------------------------------------|
B|--------------------------------------------------------------|
G|--------------------------------------------------------------|
D|---7--7-7-7-7-7-7---------------------------------------------|------|
A|---5--5-5-5-5-5-5--9p0-0-7-5--9--9-9-9-9-9-9--9p0-0-7-5-------|      |
E|------------------------------7--7-7-7-7-7-7------------------|      |
                                                                       |
e|------------------------------------------------------------------|  | x2
B|------------------------------------------------------------------|  |
G|------------------------------------------------------------------|  |
D|------------------------------------------------------------------|--|
A|---7--7-7-7-7-7-7--7p0-0-9p0-0-10p0--4--4--4-4-4/7--7--7-7-7------|
E|---5--5-5-5-5-5-5--------------------2--2--2-2-2/5--5--5-5-5------|

e|-----------------------------------------|
B|-----------------------------------------|
G|-----------------------------------------| x4
D|---7-7-----------------------------------|
A|---5-5---9--9-9---5--5-5---7--7-7--------|
E|---------7--7-7---3--3-3---5--5-5--------|

e|---5------3----------17/14---------------|
B|---5------3----17---------17-15-15-------|
G|---6------4------------------------------|
D|---7------5------------------------------|
A|---7------5------------------------------|
E|---5------3------------------------------|



Verse 1:

e|---2-2-2-2---7-7-7-7---3-3-3-3---5-5-5-5------|
B|---3-3-3-3---7-7-7-7---3-3-3-3---5-5-5-5------|
G|---2-2-2-2---7-7-7-7---4-4-4-4---6-6-6-6------| x2
D|----------------------------------------------|
A|----------------------------------------------|
E|----------------------------------------------|



Chorus:
[ Tab from: http://www.guitaretab.com/c/chase-long-beach/192196.html ]
e|---2-2------7-7------3-3------5-5-------|
B|---3-3------7-7------3-3------5-5-------|
G|---2-2------7-7------4-4------6-6-------| x2
D|----------------------------------------|
A|----------------------------------------|
E|----------------------------------------|

e|---5------3---12---10-9-----------------|
B|---5------3-------------10--------------|
G|---6------4----------------12-----------|
D|---7------5-----------------------------|
A|---7------5-----------------------------|
E|---5------3-----------------------------|



Verse 2:

e|---2-2-2-2---7-7-7-7---3-3-3-3---5-5-5-5------|
B|---3-3-3-3---7-7-7-7---3-3-3-3---5-5-5-5------|
G|---2-2-2-2---7-7-7-7---4-4-4-4---6-6-6-6------| x2
D|----------------------------------------------|
A|----------------------------------------------|
E|----------------------------------------------|



Chorus:

e|---2-2------7-7------3-3------5-5-------|
B|---3-3------7-7------3-3------5-5-------|
G|---2-2------7-7------4-4------6-6-------| x2
D|----------------------------------------|
A|----------------------------------------|
E|----------------------------------------|

e|---5------3---12---10-9-----------------|
B|---5------3-------------10--------------|
G|---6------4----------------12-----------|
D|---7------5-----------------------------|
A|---7------5-----------------------------|
E|---5------3-----------------------------|



Pre Chorus::

e|---------|
B|---------|
G|---------| x16
D|---7-----|
A|---7-----|
E|---5-----|


Chorus:

e|---5------3-------|
B|---5------3-------|
G|---6------4-------| x4
D|---7------5-------|
A|---7------5-------|
E|---5------3-------|



Outro:

e|---------|
B|---------|
G|---------| x8
D|---7-----|
A|---5-----|
E|---------|

e|-----------------------------------------|
B|-----------------------------------------|
G|-----------------------------------------| x4
D|---7-7-----------------------------------|
A|---5-5---9--9-9---5--5-5---7--7-7--------|
E|---------7--7-7---3--3-3---5--5-5--------|



e|-------------------------------------|
B|-------------------------------------|
G|-------------------------------------|
D|---7--7-7-7-7-7-7--7p0---5-4---7-----|
A|---5--5-5-5-5-5-5--9p0-0-7-5---5-----|
E|-------------------------------------|




| /  slide up
| \  slide down
| h  hammer-on
| p  pull-off
| ~  vibrato
| +  harmonic
| x  Mute note
===============================================================================
Advertisement will be closed in 10 seconds