Guitaretab - guitar tabs
Song name
# A B C D E F G H I J K L M N O P Q R S T U V W X Y Z

Chasing Victory - Night Your Guardian Angel Fell Asleep tab

www.chasing victory.com

Song-The night your guardian angel fell asleep
Band-Chasing victory


\\slide down
//slide up

Opening 1st guitar
|--------------------------------------------------------------------------|
|--------------------------------------------------------------------------|
|-----------------------------4----6-------------------------4----7--------|
|--11\\---00------00------00--X-X5-X-X5-00-------00------00--X-X5-X--11\\--|
|--11-----00------00------00--2----4----00-------00------00--2----5--11----|
|--11-----00------00------00------------00-------00------00----------11----|

Opening 2nd guitar
|--------------------------------------------------------------------------|
|--------------------------------------------------------------------------|
|-----------8--------8--------6----8--------8-------8--------6----9--------|
|-----------X-X4-----X-X4-----X-X5-X-X5-----X-X4----X-X4-----X-X5-X-X4-----|
|-----------6--------6--------4----6--------6-------6--------4----7--------|
|--------------------------------------------------------------------------|

Opening continued 1st guitar
|--------------------------------------------------------------------------|
|--------------------------------------------------------------------------|
|--------9-------9--------6----4-------9--------9--------6----8----/9------|
|-----00-X-X4-00-X-X4-00--X-X3-X-X3-00-X-X4--00-X-X4-00--X-X3-X-X3-/X------|
|-----00-7----00-7----00--4----2----00-7-----00-7----00--4----6----/7------|
|-----00------00------00------------00-------00------00--------------------|

Opening continued 2nd guitar
|--------------------------------------------------------------------------|
|--------------------------------------------------------------------------|
|--------8--------8--------6----4--------8-------8--------6----8----/9-----|
|--------X-X4-----X-X4-----X-X5-X-X5-----X-X4----X-X4-----X-X3-X-X3-/X-----|
|--------6--------6--------4----2--------6-------6--------4----6----/7-----|
|--------------------------------------------------------------------------|
[ Tab from: http://www.guitaretab.com/c/chasing-victory/70700.html ]
Verse is only 1 guitar
|--------------------------------------------------------------------------|
|--------------------------------------------------------------------------|
|-----------8--------------6--------------8----------6---6-6-6-6/-8--------|
|--------------------------------------------------------------------------|
|----6--------------4--------------6-----------4--------4-4-4-4------------|
|--------------------------------------------------------------------------|

Pre chorus
2nd guitar
|---------------|
|---------------|
|---------------|
|-7----6----XX--|
|-7-X5-6-X2-XX--|
|-7----6----XX--|

Chorus
1st guitar
|--------------------------------------------|
|--------------------------------------------|
|----8--6---9-8-6------4-6-4-6-4-6--986------|
|--------------------------------------------|
|--------------------------------------------|
|--------------------------------------------|

Chorus 2nd Guitar
|--------------------------------------------|
|--------------------------------------------|
|--------------------------------------------|
|--6-X16--0-X16----2-X8-4-X8--6--X16---------|
|--6------0--------2----4-----6--------------|
|--6------0--------2----4-----6--------------|

2nd verse
1st guitar
|--------------------------------------------------------------------------|
|--------------------------------------------------------------------------|
|--------------------------------------------------------------------------|
|--7-X3-6-X3----03030-03030------------------------------------------------|
|--7----6-------03030-03030------------------------------------------------|
|--7----6-------03030-03030------------------------------------------------|

2nd Guitar same
then go to chorus
Bridge
1st guitar
|--------------------------------------------------------------------------|
|--------------------------------------------------------------------------|
|--------------------------------------------------------------------------|
|--0---------0-------------------------------------------------------------|
|--0---------0-------------------------------------------------------------|
|--0--7-5-3--0--7-5-8------------------------------------------------------|

2nd guitar
|--------------------------------------------------------------------------|
|--------------------------------------------------------------------------|
|--------------------------------------------------------------------------|
|--0--7-5-3--0--7-5-8------------------------------------------------------|
|--0---------0-------------------------------------------------------------|
|--0---------0-------------------------------------------------------------|

then chorus
Related for Night Your Guardian Angel Fell Asleep tab