Guitaretab - guitar tabs
Song name
# A B C D E F G H I J K L M N O P Q R S T U V W X Y Z

Chasing Victory - Oceans Away tab

-------------------------------------------------------------------------------
			     Chasing Victory - Oceans Away
-------------------------------------------------------------------------------
Tabbed by: LOLBBQ
Email:syphonbhd@hotmail.com
[ Tab from: http://www.guitaretab.com/c/chasing-victory/79615.html ]
Tuning: DROPPIN THEM D'Z (drop d)
   introz  (meet me at the shore, or should it be halfway...)
e|---------------------------------------------------------------------------|
B|---------------------------------------------------------------------------|
G|---------------------------------------------------------------------------|
D|-xx00xxx3/5\3-00xx33-555888810101010---------------------------------------|
A|-xx00xxx3/5\3-00xx33-555888810101010---------------------------------------|
D|-xx00xxx3/5\3-00xx33-555888810101010---------------------------------------|
    (And i'll write it on the walls..)
e|-------------------------------------------------------------------------|
B|-----------------follow this pattern through the verse until 20 sec.-----|
G|-----9/10\x\7-33-55-----9/10\x\7-55-33-----------------------------------|
D|--00-x-x--x-x-33-55--00-x-x--x-------------------------------------------|
A|--00-7/8\-x\5-11-33--00-7/-8\x\5-33-11-----------------------------------|
D|--00-----------------00--------------------------------------------------|
   (20 secs in and 30 secs in)
e|------------------------------------------------------|
B|-------play this and then go back to the verse pattern|
G|--7-9-10-9-12-10-9-10---------------------------------|
D|--x-x-x--x-x--x--x-x----------------------------------|
A|--5-7-8--7-10-8--7-8----------------------------------|
D|------------------------------------------------------|
  pre chrous
e|----------------------------|
B|----------------------------|
G|--141414---121212-----------|
D|--x-x-x-----x-x-x-----------|
A|--121212----101010----------|
D|----------------------------|
  CHORUS
e|-------------------------------------------------------------------|
B|-------------------------------------------------------------------|
G|--77--777-333--555-------------------5-----------------------------|
D|--77--777-333--555----x3 and then----5-3-0-------------------------|
A|--55--555-111--333-------------------3-3-0-------------------------|
D|---------------------------------------3-0-------------------------|

e|-----------------------------------------------------------------------------|
B|-----------------------------------------------------------------------------|
G|-----------------------------------------------------------------------------|
D|-00000-8888-10101010---------------------------------------------------------|
A|-00000-8888-10101010--x2-----------------------------------------------------|
D|-00000-8888-10101010---------------------------------------------------------|


it's all i got for now, usually i just improvise the breakdown, not too difficult to do 
should be good.  if you need amp settings or anything like that to match their sound 
me a message.

| /  slide up
| \  slide down
| h  hammer-on
| p  pull-off
| ~  vibrato
| +  harmonic
| x  Mute note
===============================================================================
Related for Oceans Away tab