Song name
# A B C D E F G H I J K L M N O P Q R S T U V W X Y Z

Chatmonchy - Daidai chords

Highlighted       Show chord diagrams
Music by: Hashimoto Eriko

Tab by kirby agudelo 2008-09-12
Friday, February 20th, 2009

(stanza 1)
      G                      G
nanimo tenitsukanai, shirokurono hitomi de
          G
watashi Wa tada hitasura
        C             D
THERE IS NOTHING I CAN DO FOR YOU
   G                           G
ano goro no watashi wa, nani ni kandou shite
       G
nani ni manzoku shite,
     G              D
jibun wo rikai shite ita no?

(chorus)
G     D     C    C
dokonimo ikanaide
G            D     C  -----
PLEASE DON'T GO ANYWHERE

(pre chorus 1)
G         D        C       D
ichi nen mae ni modoritai nan de
G      D       C       D
nande imasara omoeru kana
G        D          C        D
ano koro no watashi wa kinou to onaji
G       D       C     D
kyou nante kankaenakatta

(chorus)
   G     D        C       C
mou kore ijiyou ikanaide

PURIIZU DON GOO ENIMOA (*please don't go anymore)

(stanza 2, uses the same chords probably but light picking is donE please refer to tab)
me wo tsuburu to arukenai to
wakatte itano ni hitori tsubutteta
me wo sorasuto susummenai to wakatte itano ni
hitori sora shiteita

(TAB)
e |-7------8-3-5----|-7------8-3-5----|-7------8-3-5----|-7------3---5----|
B |-----------------|-----------------|-----------------|-----------------|
G |-----------------|-----------------|-----------------|-----------------|
D |-----------------|-----------------|-----------------|-----------------|
A |-----------------|-----------------|-----------------|-----------------|
E |-----------------|-----------------|-----------------|-----------------|

e |-7------8-3-5----|-7------8-3-5----|-7------8-3-5----|-7------8-3-5----|
B |-----------------|-----------------|-----------------|-----------------|
G |-----------------|-----------------|-----------------|-----------------|
D |-----------------|-----------------|-----------------|-----------------|
A |-----------------|-----------------|-----------------|-----------------|
E |-----------------|-----------------|-----------------|-----------------|

(pre chorus 2)
G        D        C         D      G
itsunomanika anata wo kizutsuke omoigakenai
 D        C       D
kotoba wo hashiteita
G       D         C
amae nu ki kizutsuke nuita
D          G        D         C        D
watashi ha kondo ha nani wo motomeru kana

(chorus)
   G       D      C    C
mou doko ni mou ikanaide
G           D     C      C
PLEASE DON'T GO ANYWHERE
   G     D        C     C
mou kore ijiyou ikanaide
G           G     C     C
PLEASE DON'T GO ANYMORE

   G     D        C      C
mou kore ijiyou arukenai
   G     D        C      C
mou kore ijiyou arukenai
   G     D        C       C
mou kore ijiyou arukenai watashi ha

G  D  C  C

G  G  G  G

G  G  {TAB}

       G
e |-----------------|-----------------|
B |-----------------|-----0---3-------|
G |--//-//-//---0---|-2---------------|
D |-----------------|-----------------|
A |-----------------|-----------------|
E |-----------------|-----------------|

(and finish the song with a nice and slow G-chord)
G

DISCLAIMER
this is not mine, i just posted it here since its an awesome Tab and its being 
hidden from the world xD

reference: http://jmusic.kirby-agudelo.net/archives/tag/chatmonchy
Tap to rate this tab
# A B C D E F G H I J K L M N O P Q R S T U V W X Y Z