Guitaretab - guitar tabs
Song name
# A B C D E F G H I J K L M N O P Q R S T U V W X Y Z

Chaucha Kings - Volverte A Ver tab

sta kncion s de un grupo ecuatoriano yeah!!!!!
pregutas ale-laverde@hotmail.com

e---------------------------------]
B----10---8-8-8--10----8-8-8------]
G-------9-------9----9-------11--9] 2 TIMES
D---------------------------------]
A---------------------------------]
E---------------------------------]

Las notas para la demas son=(Am-G-F-E) todos estos con sus puentes no!!!
[ Tab from: http://www.guitaretab.com/c/chaucha-kings/178585.html ]
solo:
e------------------------------------------]
B--------10--13--15-17/---17-17-13-17-13-15]
G--9-9-9-----------------------------------]
D------------------------------------------]
A------------------------------------------]
E------------------------------------------]

---------------------------------------------]
-15-15-15-12-15-12-13-13-13-15-13-12-10-9----]
------------------------------------------9+-]
---------------------------------------------]
---------------------------------------------]
---------------------------------------------]

www.loschauchakings.com