Song name
# A B C D E F G H I J K L M N O P Q R S T U V W X Y Z

Chave Douro - Pai Da Crianca tab

  

Ola pessoal, esta e a minha primeira tab e espero que esteja bem.
esta e uma daquelas musicas para brincar um bocadinho e cantar com os amigos. espero que gostem.
____________________________________________________________________________

Hello people, this is my first tab and I hope that is correct.
this is one of those songs to play a little and sing with friends. I hope you like.





E ---7-7-7-----------------------------------------  |
G ---------9-9-9-7-11-7--11-11-11-11-11-11-9-12-9--  |
B -------------------------------------------------  | (x2)
D -------------------------------------------------  |
A -------------------------------------------------  |
E -------------------------------------------------  |

          |Fast |
E --------|-----|----------------------------------  |
G ---4-4-7-4-4-4-7-4-2--6-6-6-4-2-6-6-4-2-4--------  |
B -------------------------------------------------  | (x2)
D -------------------------------------------------  |
A -------------------------------------------------  |
E -------------------------------------------------  |


E -------------------------------------------------  |
G ---12/19-----------------------------------------  |
B -------------------------------------------------  | 
D -------------------------------------------------  |
A -------------------------------------------------  |
E -------------------------------------------------  |




  Am                      G 
  Na minha rua mora uma sopeira,  
                          Am 
  Tem 20 anos ainda não namora. 
                          G 
  Na minha rua mora uma sopeira,  
                          Am 
  Tem 20 anos ainda não namora. 
                          G 
  Aqui há dias apareceu inchada, 
                               Am            
  Ai coitadinha, está perto da hora. 
                          G 
  Aqui há dias apareceu inchada, 
                               Am 
  Ai coitadinha, está perto da hora. 


  Am 
  Mas quem será? Mas quem será? 
                            G                     
  Mas quem será o Pai da criança? 
                                    Am 
  Eu sei lá, sei lá… Eu sei lá, sei lá! 

  Mas quem será? Mas quem será 
                            G 
  Mas quem será o pai da criança? 
                                    Am      
  Eu sei lá, sei lá… Eu sei lá, sei lá! 


  INTRO


  Am                    G 
  Mas quem será, o atrevido 
                               Am  
  Que nesse dia pela porta entrou? 
                        G 
  Mas quem será, o atrevido 
                               Am 
  Que nesse dia pela porta entrou? 
                                    G 
  Maldita a hora que a patroa descobriu 
                                          Am 
  O malandro do patrão, com a sopeira dormiu. 
                                    G 
  Maldita a hora que a patroa descobriu 
                                          Am 
  O malandro do patrão, com a sopeira dormiu. 

  Refrão 

  Intro

  Refrão 

http://www.chavedouro.net/
Tap to rate this tab
 
# A B C D E F G H I J K L M N O P Q R S T U V W X Y Z