Song name
# A B C D E F G H I J K L M N O P Q R S T U V W X Y Z

Chazz Valentine - Shades Of Grey tab

[-----------------------------------------------------]
[-----------------------------------------------------]
[-----------------------------------------------------]
[-----------------------------------------------------]
[-----4----------4-8~4--999-8-6-46864------444--------]
[-4-6--------4-6------------------------------4/6/4---] 

[-----------------------------------------------------]
[---------------------------------------------------6-]
[---------------------------------------------------6-]
[---------------------------------------------------6-]
[-----4----------4-8~4--999-8-6-46864------444------4-]
[-4-6--------4-6------------------------------4/6/4---]

Well Life is a gain (During the last C#)

C#               F#      G#            C#
    You .... all so many times it .... intense to say (Somthing like that, i don't really know)

And after this, the intro is remake for :

[------------------------------------------------------------]
[------------------------------------------------------------]
[------------------------------------------------------------]
[------------------------------------------------------------]
[-----4----------4-8~4--999-8-6-46864-----4-8~4---444--------]
[-4-6--------4-6----------------------4-6-------------4/6/4--] 

[-------------------------------------------------------------]
[-----------------------------------------------------------6-]
[-----------------------------------------------------------6-]
[-----------------------------------------------------------6-]
[-----4----------4-8~4--999-8-6-46864-----4-8~4---444-------4-]
[-4-6--------4-6----------------------4-6-------------4/6/4---] 


And During the chorus :

The Chords are : C# / G# / C# / F#  & C# / F# / G# / C#

Enjoy it !
Tap to rate this tab
# A B C D E F G H I J K L M N O P Q R S T U V W X Y Z